Oops, an error
Loading. Please wait.

Aurora Tab

version 1
version 1

Whole song

1,835 views 3 this week
1 commentread comment
1 2 3 4 5
1 last vote to show rating
add to favorites
launch autoscroll
font size
0
reset
how to read this tab
guitar tuner
Autoscroll
slow
fast
+/-
esc
set tempo
stop
Difficulty
Tuning
intermediate
E A D G B E
Intro / Verse:

e|-------------------------------------------------------------|
B|------------------s----------------------------s-------------|
G|--------------4---------------------------2------------------|
D|----------5---------------------------3----------------------|
A|------5---------------------------3--------------------------|
E|--3---------------------------1------------------------------|


e|-----------------------------------------------------------------------|
B|----------------5-----------5---------5---------5--------5-------------|
G|------------5---------------5---------5---------5--------5-------------|
D|--------5-------------------3---------3---------3--------3-------------|
A|----3------------------------------------------------------------------|
E|-----------------------------------------------------------------------|

 1st Chorus:
C5            A5
Had you in my hand
                  F5
Now where did you go, Aurora?
C5         A5
See you up ahead,
            F5                  G#5 A#5     C5
But I don’t know if I can go as far as you go

Verse

2nd Chorus:
(C5, A5, F5) x2
G#5, A#5

C5    G5 A#5   x2

C5                 G5        A#5
And everyone keeps telling me that this is good
C5                   G5        A#5
I needed you to tell me it was good too

Solo:
e|----------------------------------------------------------------------|
B|----------------------------------------------------------------------|
G|--7b9-----------------12-9s10--12----10-9-10--9---7-s9---10s9---------|
D|------------------10--------------------------------------------10----|
A|----------------------------------------------------------------------|
E|----------------------------------------------------------------------|
    (slow bend)

3rd Chorus

Intro


*************************

| b  Bend
| s  Legato slide

*************************
Suggest correction
Give kudos to tab author, rate the tab!
1 2 3 4 5
comments
print report bad tab
1 comment total.
0 reply
scorpio2billion 140 Oct 30, 2013 06:59 AM

The chords under the lyrics "...as far as you go" should be a G#, A#, and an F.

guest
Wanna post a correction for this tab? Suggest correction