Oops, an error
Loading. Please wait.

Earthcrosser Tab

1,479 views 1 this week
no commentswrite comment
1 2 3 4 5
2 more votes to show rating
add to favorites
launch autoscroll
font size
0
reset
how to read this tab
guitar tuner
Autoscroll
slow
fast
+/-
esc
set tempo
stop
Help us to improve Ultimate-Guitar.com Take our survey!
×
Author
Difficulty
----------------------------------------------------------------------------
                             Earthcrosser - Veruca Salt
----------------------------------------------------------------------------
Tabbed by: flea's trumpet
Email: funky--monks@hotmail.com

Message from Tabber: Earthcrosser is a fairly simple song that's based around
power chord sequences and includes a little soloish lead part, nothing too challenging.
I transcribed this using an unplugged electric guitar, so I'm not confident with
what settings are required to mimic the song exactly. I welcome any changes or 
suggestions you have of this tab to make it more accurate. Earthcrosser is a great
song to rock out to by this female fronted grunge-rock outfit from their 2nd LP 
'Eight Arms To Hold You', I hope you enjoy it.

Tuning: Standard

Intro / Verses: clean guitar
e|-------------------------------------------------------------------------|
B|-------------------------------------------------------------------------|
G|-------------------------------------------------------------------------|
D|------------------------------7--7/---10--10\----------------------------|
A|--5-------5-------5--5--5--5--7--7/---10--10\-----5----------------------|
E|--5-------5-------5--5--5--5--5--5/----8---8\-----5----------------------|

Chorus: Distortion
e|-------------------------------------------------------------------------|
B|-------------------------------------------------------------------------|
G|--7-------7-------7--7--7--7----------------------7----------------------|
D|--7-------7-------7--7--7--7--7--7/---10--10\-----7----------------------|
A|--5-------5-------5--5--5--5--7--7/---10--10\-----5----------------------|
E|--5-------5-------5--5--5--5--5--5/----8---8\-----5----------------------|

e|-------------------------------------------------------------------------|
B|-------------------------------------------------------------------------|
G|--7-------7-------7--7--7--7---------------------------------------------|
D|--7-------7-------7--7--7--7--7--7/---10--10\-----8------8------8------8-|
A|--5-------5-------5--5--5--5--7--7/---10--10\-----8------8------8------8-|
E|--5-------5-------5--5--5--5--5--5/----8---8\-----6------6------6------6-|

e|-------------------------------------------------------------------------|
B|-------------------------------------------------------------------------|
G|-------------------------------------------------------------------------|
D|--3-------3-------3-------3-------5-------5-------5----------------------|
A|--3-------3-------3-------3-------5-------5-------5----------------------|
E|--1-------1-------1-------1-------3-------3-------3----------------------|

e|-------------------------------------------------------------------------|
B|-------------------------------------------------------------------------|
G|--7----------------------------------------------------------------------|
D|--7---7--7/--8--8--8------8-------8-------3-------3-------3-------3------|
A|--5---7--7/--8--8--8------8-------8-------3-------3-------3-------3------|
E|------5--5/--6--6--6------6-------6-------1-------1-------1-------1------|

e|-------------------------------------------------------------------------|
B|-------------------------------------------------------------------------|
G|-------------------------------------------------------------------------|
D|--5-------5-------5-------5----------------------------------------------|
A|--5-------5-------5-------5--------5-------------------------------------|
E|--3-------3-------3-------3--------5-------------------------------------|


Interlude lead part: slide guitar, clean settings
e|-------------------------------------------------------------------------|
B|--10b12r10---8--7------10b12r10--8--7-------7b8r7------------------------|
G|-------------------------------------------------------------------------|
D|-------------------------------------------------------------------------|
A|-------------------------------------------------------------------------|
E|-------------------------------------------------------------------------|

e|-------------------------------------------------------------------------|
B|--5\----3/----5/----7\-----2----------5\-----3-------5\------3-----------|
G|-------------------------------------------------------------------------|
D|-------------------------------------------------------------------------|
A|-------------------------------------------------------------------------|
E|-------------------------------------------------------------------------|

e|-------------------------------------------------------------------------|
B|--3/----5/----7------3\----2-----2/----5\----3---------------------------|
G|-----------------------------------------------------4-------------------|
D|-------------------------------------------------------------------------|
A|-------------------------------------------------------------------------|
E|-------------------------------------------------------------------------|

e|-------------------------------------------------------------------------|
B|-3/-----5\----3----------------------------------------------------------|
G|--------------------4\------2--------------------------------------------|
D|-------------------------------------------------------------------------|
A|-------------------------------------------------------------------------|
E|-------------------------------------------------------------------------|


| /  slide up
| \  slide down
| h  hammer-on
| p  pull-off
| ~  vibrato
| +  harmonic
| x  Mute note
============================================================================
Suggest correction
Give kudos to tab author, rate the tab!
1 2 3 4 5
comments
print report bad tab
guest
You may want to rate the tab now too:
select rating
Wanna post a correction for this tab? Suggest correction