Oops, an error
Loading. Please wait.

Seether Tab

26,954 views 39 this week
2 commentsread comments
1 2 3 4 5
x 7
add to favorites
launch autoscroll
font size
0
reset
how to read this tab
guitar tuner
Autoscroll
slow
fast
+/-
esc
set tempo
stop
Help us to improve Ultimate-Guitar.com Take our survey!
×
SEETHER
                                 VERUCA SALT

Tune down half step (eb,Bb,Gb,Db,Ab,Eb)

 [INTRO]       (Rhy.Fig.1)
  B5            B5            B5    A5       D5        B5 D5
e|------------|-------------||----------------------------------|
B|------------|-------------||----------------------------------|
G|------------|-------------||----------------------------------|
D|-9-9-9-9-9--|--9-9-9-9-9--||-9-9-9-7-7-7-7--12-12-12--9--12---|
A|-9-9-9-9-9--|--9-9-9-9-9--||-9-9-9-7-7-7-7--12-12-12--9--12---|
E|-7-7-7-7-7--|--7-7-7-7-7--||-7-7-7-5-5-5-5--10-10-10--7--10---|
           Ow! (repeat 3x)   (then at end of 3rd play this)

 [VERSE]  (guitar 1 palm mute, guitar 2 plays muted strings)
e|----------------------------------------|
B|-----------slide hand-------------------|
G|-----------on strings-------------------|
D|-9-9-9-9-\/to make a----7-7-7-7---------|
A|-9-9-9-9-\/squeaking----7-7-7-7---------|
E|-7-7-7-7-\/sound, 2x----5-5-5-5---------|
  pm.....|               pm............|
  Seether is neither     Loose nor tight
  Seether is neither     Black nor wh  -  ite (let up on pm)

   B5   G#5    E5           B5           G#5   A5
e|--------------------------------------|------------|
B|--------------------------------------|------------|
G|-------------9-9-9--------------------|------------|
D|-9-9--6-6-6--9-9-9---------9-9-9------|-6-6---7-7--|
A|-9-9--6-6-6--7-7-7---------9-9-9------|-6-6---7-7--|
E|-7-7--4-4-4--7-7-7---------7-7-7------|-4-4---5-5--|
    I  try to keep her on a short leash
    I  try to calm her down......
    I  try to ram  her into the          gro  -  und, yeah

[CHORUS]  Play Rhy.Fig.1
B5    A5        D5  B5  D5
Can't fight the seether    (3x)
B5                          E5            B5
I  can't see her till I'm foaming at the mouth

[VERSE 2] (Same as VERSE 1)
B5                          A5
Seether is     neither      Big nor small
Seether is the center       Of it a  -  ll

   B5   G#5    E5           B5       G#5   A5
e|----------------------------------|------------|
B|----------------------------------|------------|
G|-------------9-9-9----------------|------------|
D|-9-9--6-6-6--9-9-9---------9-9-9--|-6-6---7-7--|
A|-9-9--6-6-6--7-7-7---------9-9-9--|-6-6---7-7--|
E|-7-7--4-4-4--7-7-7---------7-7-7--|-4-4---5-5--|
    I  try to rock her in my cradle
    I  try to knock her out...
    I  try to cram her back in my    mou  -  th, yeah

[CHORUS]
 Then This:  (with palm mute)
   B5             D5               E5
e|-------------------------------------------|
B|-------------------------------------------|
G|-----------------7-7-7-7----------9-9-9-9--|
D|-9-9-9-9---------7-7-7-7----------9-9-9-9--|
A|-9-9-9-9---------5-5-5-5----------7-7-7-7--|
E|-7-7-7-7---------5-5-5-5----------7-7-7-7--|

          Keep her down,    Boiling water
            G5                    D5
e|------------------------------------------|
B|------------------------------------------|
G|---------------------------------7-7-7-7--|
D|-----------5-5-5-5---------------7-7-7-7--|
A|-----------5-5-5-5---------------5-5-5-5--|
E|-----------3-3-3-3---------------5-5-5-5--|

    Keep her down,   What a lovely daughter (let up on pm)
     E5                                 D5
e|-----------------------------------------------------------------------|
B|-----------------------------------------------------------------------|
G|---9-9---9--9---9----9----9-----9-----\7-7-----------------------------|
D|---9-9---9--9---9----9----9-----9-----\7-7-----------------------------|
A|---7-7---7--7---7----7----7-----7-----\5-5-----------------------------|
E|---7-7---7--7---7----7----7-----7-----\5-5--Let ring-------------------|

   Oh  she is not born like other girls,   But I know how to conceive her
   Oh she may not look like other girls,
e|----------------------------------------------|
B|----------------------------------------------|
G|-/11-11-11-11---------------------------------|
D|-/11-11-11-11---------------------------------|
A|-/9--9--9--9----------------------------------|
E|-/9--9--9--9----------------------------------|
    But she's a snarl-toothed seether, seether!

 [SOLO] (Louise!): Play over Rhy.Fig.1
e|--------5-------2-----------------------------------|
B|--0-0---0---0---0---0--5-0-2-3--2h3p2p0-------------|
G|--4-4--(4)--4--(4)--4--4----------------------------|
D|----------------------------------------------------|
A|----------------------------------------------------|
E|----------------------------------------------------|

e|--7p4--4h5p4----------------------------------------|
B|-------------5--4-5-6-7--9-7-9-9b-r-9-7-9p7---------|
G|-------------------------------------------h9-7(7)--|
D|----------------------------------------------------|
A|----------------------------------------------------|
E|----------------------------------------------------|

e|---------------------------------9br9br9br-7-9bf----|
B|---------------9-7(7)---9-7--9-7--------------------|
G|--9p7----------9-7(7)---9-7--9-7--------------------|
D|-----h9-7-7-6---------9-----------------------------|
A|----------------------------------------------------|
E|----------------------------------------------------|

[CHORUS] x2  Play Rhy.Fig.1
B5    A5        D5  B5  D5
Can't fight the seether    (3x)
B5                          E5            B5
I  can't see her till I'm foaming at the mouth

 [OUTRO]
    B5           B5              B5     A5      A5     E5
e|------------------------------------------------------------------|
B|------------------------------------------------------------------|
G|------------------------------------------------------9-----------|
D|--9-9-9-9-9-----9-9-9-9-9-------9-9-9--7-7-7---7-7-7--9-----------|
A|--9-9-9-9-9-----9-9-9-9-9-------9-9-9--7-7-7---7-7-7--7-----------|
E|--7-7-7-7-7-----7-7-7-7-7-------7-7-7--5-5-5---5-5-5--7-----------|
                           Yeah!                        let ring...

************************************

| x    Dead note
| \    Slide down
| /    Slide up
| h    Hammer-on
| p    Pull-off
| (n)  Ghost note
| r    Release
| b    Bend
| br   Bend release

************************************
Suggest correction
comments
print report bad tab
2 comments total.
0 reply
flyingskull 72 Nov 24, 2005 10:08 AM

this song rox

0 reply
magickmidget 292 Dec 22, 2007 01:24 AM

But it isn't played a step down.

guest
You may want to rate the tab now too:
select rating
Wanna post a correction for this tab? Suggest correction