Oops, an error
Loading. Please wait.

Shutterbug Bass Tab

983 views 3 this week
no commentswrite comment
1 2 3 4 5
please rate
add to favorites
launch autoscroll
font size
0
reset
guitar tuner
Autoscroll
slow
fast
+/-
esc
set tempo
stop
Help us to improve Ultimate-Guitar.com Take our survey!
×
Song: Shutterbug
Artist: Veruca Salt
Album: Eight arms to hold you
Tabbed by: Tara Martin (Purple_Lamas@hotmail.com)

Drop D tuning (DADG)

simple song, just goes along with the rhyhtm guitar.

Intro/verse:

G|-----------
D|-----------
A|-3h5-5-5-5-    x20
D|-----------

Pre chorus:

G|-----------------------------------------------------------
D|-----------------------------------------------------------
A|-----------------------------------------------------------
D|-3-5-3-0-(let ring)-6-6-6-0-(let ring)-8-8-8-0-(let ring)--

G|--------------------------
D|--------------------------
A|--------------------------
D|-3-0-0-5-0-0-6-0-0-8-0-0--

Chorus:

G|----------------------------
D|----------------------------
A|---------------------------- x3
D|-9-9-9--5-5-5--7-7-7--0-0-0-

G|----------------------------------------------------------
D|----------------------------------------------------------
A|----------------------------------------------------------
D|-0-0-0--8-8-8--0-0-0--8-8-8--0-0-0--8-8-8--0-0-0/10-10-10-

Bridge:

G|-----------------------------------
D|-----------------------------------
A|----------------------------------- x3
D|-6-7-7-7-7-5-5-5-5-4-4-4-4-3-3-3-3-

G|--------------------------------------------
D|--------------------------------------------
A|--------------------------------------------
D|-7-7-7-7-9-9-9-9-10-10-10-10-11-11-11-11-12-

For the solo just do the 1st part of the chorus a bunch of times!

Well this is it! have fun with it, should be close enough!
Suggest correction
Give kudos to tab author, rate the tab!
1 2 3 4 5
comments
print report bad tab
guest
You may want to rate the tab now too:
select rating
Please do not post tabs as comments. Select "correction" instead!