Oops, an error
Loading. Please wait.

Perra El Musical Tab

61 views 3 this week
no commentswrite comment
1 2 3 4 5
3 more votes to show rating
add to favorites
launch autoscroll
font size
0
reset
how to read this tab
guitar tuner
Autoscroll
slow
fast
+/-
esc
set tempo
stop
Help us to improve Ultimate-Guitar.com Take our survey!
×
Author
Difficulty
intermediate
About this tab version
This version was made by my, enjoy it. Was this info helpful? Yes No
[Intro]


E|-------------------------------|
B|-------------------------------|
G|-------------------------------|
D|-------5h7---------------------|
A|------------55----5------------|
E|--5-5-----------8----8-5-------|

E|-------------------------------|
B|-------------------------------|
G|-------------7-7-5-7-5---------|
D|--------5h7------------7-------|
A|-------------------------------|
E|--5-5--------------------------|

E|-------------------------------|
B|-------------------------------|
G|-------------------------------|
D|-------5h7---------------------|
A|------------55----5------------|
E|--5-5-----------8----8---------|

E|---------------------------------------------|
B|---------------------------------------------|
G|-------------5-8-7-5-7----5------------------|
D|-------5h7--------------7---7---5-7----------|
A|------------------------------7--------------|
E|--5-5----------------------------------------|


************************************
| h= hammer on
************************************
Suggest correction
Give kudos to tab author, rate the tab!
1 2 3 4 5
comments
print report bad tab
guest
You may want to rate the tab now too:
select rating
Wanna post a correction for this tab? Suggest correction