Oops, an error
Loading. Please wait.

Double Chords

1,742 views 3 this week
1 commentread comment
1 2 3 4 5
3 more votes to show rating
add to favorites
launch autoscroll
font size
0
reset
transpose
0
reset
display chords
guitar tuner
Autoscroll
slow
fast
+/-
esc
set tempo
stop
Help us to improve Ultimate-Guitar.com Take our survey!
×
Capo
1st fret
Chords relative to capo.



**Capo 1st fret**



"Double"



C   G   C   G


C   G        Am        G      C
All my highs came from you
G           C         G
came within troubles
C            G
Thrills held still
Am        G
uncertain stead
C          G         Em
not a nice word in a double
D
Double...

C   G   C   G


We started out happy and true
to one another
Days, strange ways moved in between
Darkened that dream of a double

Double...

We pair and pull up through
The twine and rubble
Call and through, what could we do?
Binded by two in a double

Double..

Born too rough, baby two is true enough
Sworn above, (?????????)
Torn for love, maybe two is (???????)
Born too rough, baby two is true enough









tabbed by shmortisborg

Suggest correction
Give kudos to tab author, rate the tab!
1 2 3 4 5
comments
print report bad tab
1 comment total.
0 reply
ewakio 93 Feb 25, 2008 10:45 PM


Capo 1st fret

Fmaj7 Gmaj7 Fmaj7 G
e|-------0----0------0----------
B|-----1----3------1----------0-
G|---2----------5------2----0--- x5
D|-3----------------------------
A|------------------------------
E|------------------------3-----

e|-------0----0------------3--5-3-------0-3----------
B|-----1----3-----3-1---3---------5---3------3-1-----
G|---2----------5-----2-------------5------------2-0-
D|-3-------------------------------------------------
A|---------------------------------------------------
E|---------------------------------------------------

Verse

Fmaj7 Gmaj7 Fmaj7 G
Fmaj7 Gmaj7 Fmaj7 G
Fmaj7 Gmaj7 Fmaj7 G
Fmaj7 Gmaj7 E G

Chorus
D
Fmaj7 Gmaj7 Fmaj7 G

Last Verse
C G Am G

guest
You may want to rate the tab now too:
select rating
Wanna post a correction for this tab? Suggest correction