Oops, an error
Loading. Please wait.

Copenhague Bass Tab

13 views 1 this week
no commentswrite comment
1 2 3 4 5
3 more votes to show rating
add to favorites
launch autoscroll
font size
0
reset
guitar tuner
Autoscroll
slow
fast
+/-
esc
set tempo
stop
Help us to improve Ultimate-Guitar.com Take our survey!
×
Author
Difficulty
novice
Copenhague – Vetusta Morla

[Intro]
G|----------|-----------|
D|----------|-----------|
A|----------|-0-4--2-0--|
E|--0--2--4-|-----------|

[Verse]
G|---------------|-------------|-----------|------------|
D|---------------|-------------|-----------|------------| x4
A|-2---2---2---2-|--0---0---0--|-----------|-0--4--2----|
E|---------------|-------------|--0--2--4--|------------|

G|-----------|-----------|-----------|
D|-----------|-----------|-----------| 
A|--2—0-2-0--|--2-0-2-0--|--2-0-2-0--|
E|-----------|-----------|-----------|

[Pre-Chorus]
G|------------------|-------------------|-------------------|-------------------|
D|------------------|-------------------|-------------------|-------------------| 
A|--2-2-2-2-2-2-2-2-|--5-5-5-5-5-5—5-5--|-------------------|--7-7-7-7-7-7-7-7--|
E|------------------|-------------------|--5-5-5-5-5-5-5-5--|-------------------|

G|------------------|-------------------|
D|------------------|-------------------| 
A|--2-2-2-2-2-2-2-2-|-5—5-5-5-5-5-5-5---|
E|------------------|-------------------|

[Chorus]
G|-------------------|-----------|-----------|
D|-------------------|-----------|-----------| x4
A|--5-5-5-5-5-5-5-5--|-----------|--7—7-7-7--|
E|-------------------|--5-5-5-5--|-----------|

[Verse]
G|-----------------|--------------|-----------|-------------|
D|-----------------|--------------|-----------|-------------| x4
A|--2---2---2---2--|--0---0---0---|-----------|--0--4--2----|
E|-----------------|--------------|--0--2--4--|-------------|

G|-----------|-----------|-----------|
D|-----------|-----------|-----------| 
A|--2—0-2-0--|--2-0-2-0--|--2-0-2-0--|
E|-----------|-----------|-----------|

[Pre-Chorus]
G|-------------------|-------------------|-------------------|-------------------|
D|-------------------|-------------------|-------------------|-------------------| 
A|--2-2-2-2-2-2-2-2--|--5-5-5-5-5-5—5-5--|-------------------|--7-7-7-7-7-7-7-7--|
E|-------------------|-------------------|--5-5-5-5-5-5-5-5--|-------------------|

G|-------------------|-------------------|
D|-------------------|-------------------| 
A|--2-2-2-2-2-2-2-2--|--5—5-5-5-5-5-5-5--|
E|-------------------|-------------------|

[Chorus]
G|-------------------|-----------|-----------|
D|-------------------|-----------|-----------| x4
A|--5-5-5-5-5-5-5-5--|-----------|--7—7-7-7--|
E|-------------------|--5-5-5-5--|-----------|

[Pre-Chorus]
G|-------------------|-------------------|-------------------|-------------------|
D|-------------------|-------------------|-------------------|-------------------| x2 
A|--2-2-2-2-2-2-2-2--|--5-5-5-5-5-5—5-5--|-------------------|--7-7-7-7-7-7-7-7--|
E|-------------------|-------------------|--5-5-5-5-5-5-5-5--|-------------------|

G|-------------------|--------------------|---------------------------|
D|-------------------|--------------------|---------------------------| 
A|--2-2-2-2-2-2-2-2--|--5-5-5-5-5-5—5-5\--|--17-17-17-17-17-17-17-17--|
E|-------------------|--------------------|---------------------------|

[Chorus]
G|-------------------|---------------------|
D|-------------------|---------------------| x8
A|--5-5-5-5-5-5-5-5--|------------7—7-7-7--|
E|-------------------|--5-5-5-5------------|

[Outro]
G|-------------|-------------|-----------------|
D|-------------|-------------|-----------------| 
A|--2-2-0-2-2--|--0-2-2-0-2--|--2-0-2-2-0-2-2--|
E|-------------|-------------|-----------------|


***********************************
| \   Slide down
***********************************
Suggest correction
Give kudos to tab author, rate the tab!
1 2 3 4 5
comments
print report bad tab
guest
You may want to rate the tab now too:
select rating
Wanna post a correction for this tab? Suggest correction