Oops, an error
Loading. Please wait.

Bully Me Tab

180 views 1 this week
no commentswrite comment
1 2 3 4 5
please rate
add to favorites
launch autoscroll
font size
0
reset
how to read this tab
guitar tuner
Tab Pro tools
  • play this tab
  • loop segment
  • change instrument
  • show fretboard
  • metronome
×
Best way to learn
"Bully Me"
Autoscroll
slow
fast
+/-
esc
set tempo
stop
Vex Red - Bully Me
Tabbed By: Myke
EMail: A_Violet_Fluid@hotmail.ocmStandard Tuning

Intro:

|-----|
|-----|
|--2--|
|--2--|
|--0--|
|-----| 

Verse:

|----------------------------|
|----------------------------|
|--2----1----2----1----2--1--|
|--2----2----2----2----3--2--|
|--0----2----0----2----3--2--|
|-------0---------0----1--0--| 

Chorus:

|---------------|
|---------------|
|--2----2----2--|
|--2----3----0--|
|--0----3----0--|
|-------1----0--| 

Bridge:

|-----|
|-----|
|--2--|
|--2--|
|--0--|
|-----| 
I want to post or [tab]
guest
You may want to rate the tab now too:
select rating
Please do not post tabs as comments. Select "correction" instead!