Oops, an error
Loading. Please wait.

The Closest Tab

version 1
version 1

Whole song

Interactive

214 views 1 this week
no commentswrite comment
1 2 3 4 5
please rate
add to favorites
launch autoscroll
font size
0
reset
how to read this tab
guitar tuner
Autoscroll
slow
fast
+/-
esc
set tempo
stop
Help us to improve Ultimate-Guitar.com Take our survey!
×
Vex Red - The Closest - tabbed by Ø[zEro] calde@email.it

-drop d tuning,high to low: eBGDAD-

Intro1\verse:(keyboard)
D [---676---676---67-]
A [-79---979---979---]

Intro1:(guitar,clean)
G [-66-666-666-666-666-666-666-666-6-]
D [-44-444-444-444-444-444-444-444-4-]

Intro2:(guitar,distorted)
G [-6--666-66--666-66--666-67-7-7vv-]
D [-4--444-44--444-44--444-40-0-----]
A [-4--444-44--444-44--444-40-0-----]
D [-4--444-44--444-44--444-40-0-----]

Link to prechorus:(guitar,distorted) [..know it's inside you]
D [-55-555-5-]
A [-55-555-5-]
D [-55-555-5-]

Prechorus:(guitar,distorted) [if you want i'll keep, so much bury deep]
G [-6-6--6-----7-7--7----------]
D [-4-4--4-/9--0-0--0-55-588-8-]
A [-4-4--4-/9--0-0--0-55-588-8-]
D [-4-4--4-/9--0-0--0-55-588-8-]

Chorus:(guitar,distorted) [wake up it's gone...]
G [-6-6------------6-6------------]
D [-4-4--9-7-97-97-4-4--9-7-97-97-]
A [-4-4--9-7-97-97-4-4--9-7-97-97-]
D [-4-4--9-7-97-97-4-4--9-7-97-97-]

Postchorus:(guitar,distorted)
G [--66-6-m--66-6----66-6-m--66-6--]
D [-044040--044040--044040--044040-]
A [-044040--044040--044040--044040-]
D [-044040--044040--044040--044040-]

we were so true, we were pure:(guitar,clean)
D [-----12-11--11-]
A [-13------------]

(distorted)
D [-55-588-8-]
A [-55-588-8-]
D [-55-588-8-]

Break on second prechorus:(guitar,distorted)
G [-6-6--6-----7-7--7---------------------]
D [-4-4--4-/9--0-0--0-55-577-77-7-7-7-7-7-]
A [-4-4--4-/9--0-0--0-55-577-77-7-7-7-7-7-]
D [-4-4--4-/9--0-0--0-55-577-77-7-7-7-7-7-]

Outro: (guitar,clean,delay)
A [-6h7\-2-2/6-6h7-7/11\-6-]
comments
We did not receive enough feedback on this tab! Please rate:
print report bad tab
1 2 3 4 5
I want to post or [tab]
guest
You may want to rate the tab now too:
select rating
Please do not post tabs as comments. Select "correction" instead!