Oops, an error
Loading. Please wait.

Manhid Ka tab

7 views 1 this week
no commentswrite comment
1 2 3 4 5
3 more votes to show rating
add to favorites
×
Save as Personal and add changes to this tab that will be seen only by you. Learn more ›
×
You can save this tab as Personal to edit and correct it or add notes. All changes will be seen only by you. Learn more »
launch autoscroll
font size
0
reset
how to read this tab
guitar tuner
edit
Autoscroll
slow
fast
+/-
esc
set tempo
stop
[Intro]
e|-------------------|---------------------------------|-----------------------|
B|-1--3s5v--5s8--5v--|----6-5-6-5s1v--3v-sv5--5s8--v5--|----6-5-6-5s1v--3v-----|
G|-------------------|---------------------------------|-----------------------|
D|-------------------|---------------------------------|-----------------------|
A|-------------------|---------------------------------|-----------------------|
E|-------------------|---------------------------------|-----------------------|


C Am G F (2x)
F G (4x)
C Am F G (2x)
F G Am F 

C
Di mo ba alam na may.
Am                       G    F
Nagmamahal sayong tunay, AKO. wooooh..
C
Di mo ba naririnig.
Am                     G    F
Sinisigaw ng puso kong ito, Pangalan Mo.
F
Na kahit na anong gawin.
G
Binigay ko nang bituin.
F                        G
Di pa rin napapansin ang puso ko.

C
Di pa rin tumatalab,
Am                 G      F
Gayuma na pantalab sayo.. woohooo.
(inlove sayoo...)
C
Kahit na isang ngiti.
Am                G        F
Pinagkakait mo pa sakin...ito!
F
Kahit sagasaan ka.
G                   F                   G        
Kahit magpakulam ka di parin tumatalab sayo......oohh!


      C           G
Dahil manhid ka , manhid ka.
Am        F
Walang pakiramdam.
      C          G
O kay manhid ka, manhid ka.
    Am           F
Puro deadma ka na lang .
F               G
Bet na bet pa naman kita.
Am               C
Laman din ako ng tiyan.
F                G           C
Syunga kaba talaga o manhid ka.

[Intro]
e|-------------------|---------------------------------|-----------------------|
B|-1--3s5v--5s8--5v--|----6-5-6-5s1v--3v-sv5--5s8--v5--|----6-5-6-5s1v--3v-----|
G|-------------------|---------------------------------|-----------------------|
D|-------------------|---------------------------------|-----------------------|
A|-------------------|---------------------------------|-----------------------|
E|-------------------|---------------------------------|-----------------------|

[Solo]

e|-----------------------------5---------------------------------------------|
B|1--3s5v--5s8--5v----6-5-6s8-----8------------------------------------------|
G|---------------------------------------------------------------------------|
D|---------------------------------------------------------------------------|
A|---------------------------------------------------------------------------|
E|---------------------------------------------------------------------------|

e|------8--------------8--5v-------------------------------------------------|
B|5h6s8---8v------5h6s8------------------------------------------------------|
G|---------------------------------------------------------------------------|
D|---------------------------------------------------------------------------|
A|---------------------------------------------------------------------------|
E|---------------------------------------------------------------------------|

e|5s3------------7b9--5v-----------------------------------------------------|
B|----6-5---5-6--------------------------------------------------------------|
G|--------7------------------------------------------------------------------|
D|---------------------------------------------------------------------------|
A|---------------------------------------------------------------------------|
E|---------------------------------------------------------------------------|


F
Kahit sagasaan ka.
G                   F                   G        
Kahit magpakulam ka di parin tumatalab sayo......oohh!

      C           G
Dahil manhid ka , manhid ka.
Am        F
Walang pakiramdam.
      C          G
O kay manhid ka, manhid ka.
    Am           F
Puro deadma ka na lang .
F               G
Bet na bet pa naman kita.
Am               C
Laman din ako ng tiyan.
F                G           C
Syunga kaba talaga o manhid ka.

[Intro]
e|-------------------|---------------------------------|-----------------------|
B|-1--3s5v--5s8--5v--|----6-5-6-5s1v--3v-sv5--5s8--v5--|----6-5-6-5s1v--3v-----|
G|-------------------|---------------------------------|-----------------------|
D|-------------------|---------------------------------|-----------------------|
A|-------------------|---------------------------------|-----------------------|
E|-------------------|---------------------------------|-----------------------|

Syunga kaba talaga......... o manhid ka.......


e|--------------------5s3----------------------------------------------------|
B|-1--3s5v--5s8--5v---------6-5----------------------------------------------|
G|-------------------------------7v--4v--5v----------------------------------|
D|---------------------------------------------------------------------------|
A|---------------------------------------------------------------------------|
E|---------------------------------------------------------------------------|



************************************

| h  Hammer-on
| b  Bend
| s  
Slide 
| v  
Vibrato

************************************
Suggest correction
Creating personal tab
Creating personal tab
You can edit any tab online and save it as your Personal.

You can edit, replace or remove any tab part or add personal notes – all changes will be seen only by you.

Personal tabs can be accessed anytime from any device, even offline.
Learn more »
Give kudos to tab author, rate the tab!
1 2 3 4 5
comments
print report bad tab
guest
You may want to rate the tab now too:
select rating
Wanna post a correction for this tab? Suggest correction