Oops, an error
Loading. Please wait.

Advance Britannia Bass Tab

4 views 1 this week
no commentswrite comment
1 2 3 4 5
3 more votes to show rating
add to favorites
launch autoscroll
font size
0
reset
guitar tuner
Autoscroll
slow
fast
+/-
esc
set tempo
stop
Help us to improve Ultimate-Guitar.com Take our survey!
×
Author
Difficulty
novice
                             VICE SQUAD - ADVANCE BRITANNIA

Tabbed by: Rottney (reconssuck)
E-mail: reconssuck@hotmail.de

Artist: Vice Squad
Song: Advance Britannia
Album: Punk Rock Radio (2011)



[Intro]

G|--------|---------|---------|----------|
D|--------|---------|---------|----------|
A|-3------|--5------|--1------|--0-------|
E|--------|---------|---------|-----1----|

G|--------|---------|---------|--------|---------------|
D|--------|---------|---------|--------|---------------|
A|-3------|--5------|--1------|--0-----|-1--0----------|
E|--------|---------|---------|--------|-------3--1----|


[Chorus] x2

G|-----------|------------------|-------------|-------------|------------|
D|-----------|------------------|-------------|-------------|------------|
A|-1-1-1-1-1-|-0-0--------------|-1-1-1-1-1-1-|-0-0---------|-1-0--------|
E|-----------|-----3-3-3-3-3-0-0|-------------|-----3-3-3-3-|-----3-1----|


[Chorus End]

G|-----------|-------------------|-----------|-----------------|
D|-----------|-------------------|-----------|-----------------|
A|-1-1-1-1-1-|-3-----------------|-1-1-1-1-1-|-----------------|
E|-----------|---1-1-1-1-1-1-1-1-|-----------|-0-1-1-1-1-1-1-1-|

[Verse] x2

G|--------|---------|---------|----------|
D|--------|---------|---------|----------|
A|-3------|--5------|--1------|--0-------|
E|--------|---------|---------|-----1----|

G|--------|---------|---------|--------|---------------|
D|--------|---------|---------|--------|---------------|
A|-3------|--5------|--1------|--0-----|-1--0----------|
E|--------|---------|---------|--------|-------3--1----|

[Verse Continuation] x2

G|-----------------|-----------------|------------------|-------------------|
D|-----------------|-----------------|------------------|-------------------|
A|-3-3-3-3-3-3-3-3-|-5-5-5-5-5-5-5-5-|--1-1-1-1-1-1-1-1-|--0-0-0-0----------|
E|-----------------|-----------------|------------------|-----------1-1-1-1-|

G|-----------------|-----------------|------------------|------------------|-----------|----------|
D|-----------------|-----------------|------------------|------------------|-----------|----------|
A|-3-3-3-3-3-3-3-3-|-5-5-5-5-5-5-5-5-|--1-1-1-1-1-1-1-1-|--1-1-1-1-1-1-1-1-|-0-0-0-0-0-|-1-0------|
E|-----------------|-----------------|------------------|------------------|-----------|------3-1-|



[Chorus] x2

G|-----------|------------------|-------------|-------------|------------|
D|-----------|------------------|-------------|-------------|------------|
A|-1-1-1-1-1-|-0-0--------------|-1-1-1-1-1-1-|-0-0---------|-1-0--------|
E|-----------|-----3-3-3-3-3-0-0|-------------|-----3-3-3-3-|-----3-1----|

[Chorus End]

G|-----------|-------------------|-----------|-----------------|
D|-----------|-------------------|-----------|-----------------|
A|-1-1-1-1-1-|-3-----------------|-1-1-1-1-1-|-----------------|
E|-----------|---1-1-1-1-1-1-1-1-|-----------|-0-1-1-1-1-1-1-1-|



[Bridge]

G|---------|---------|---------|-------|
D|---------|---------|---------|-------|
A|-3-3-3-3-|-5-5-5-5-|-7-7-7-7-|-8-8-8-|
E|---------|---------|---------|-------|


[Chorus] x8

G|-----------|------------------|-------------|-------------|------------|
D|-----------|------------------|-------------|-------------|------------|
A|-1-1-1-1-1-|-0-0--------------|-1-1-1-1-1-1-|-0-0---------|-1-0--------|
E|-----------|-----3-3-3-3-3-0-0|-------------|-----3-3-3-3-|-----3-1----|

(Song fades out)




That's all
Enjoy and Rate



Suggest correction
Give kudos to tab author, rate the tab!
1 2 3 4 5
comments
print report bad tab
guest
You may want to rate the tab now too:
select rating
Wanna post a correction for this tab? Suggest correction