Oops, an error
Loading. Please wait.

Are You Looking At Me Bass Tab

4 views 1 this week
no commentswrite comment
1 2 3 4 5
3 more votes to show rating
add to favorites
launch autoscroll
font size
0
reset
guitar tuner
Autoscroll
slow
fast
+/-
esc
set tempo
stop
Help us to improve Ultimate-Guitar.com Take our survey!
×
Author
Difficulty
novice
                             VICE SQUAD - ARE YOU LOOKING AT ME

Tabbed by: Rottney (reconssuck)
E-mail: reconssuck@hotmail.de

Artist: Vice Squad
Song: Are You Looking At Me
Album: Punk Rock Radio (2011)



[Intro] x4

G|-----------|-------------|---------|---------------|
D|-----------|-------------|---------|---------------|
A|--5--3-----|-5--3--------|-5--3----|---------------|
E|--------1--|------1-1-1--|------1--|-3-3-3--6-6-6--|


[Chorus]


G|-----------------|-----------------|-----------------|---------|---------|---------|---------|
D|-----------------|-----------------|-----------------|---------|---------|---------|---------|
A|-5-5-5-5-5-5-5-5-|-1-1-1-1-1-1-1-1-|-3-3-3-3-3-3-3-3-|-1-1-1-1-|-0-0-0-0-|---------|---------|
E|-----------------|-----------------|-----------------|---------|---------|-3-3-3-3-|1-1-1-1--|

G|-----------------|-----------------|-----------------|----------------------------------|
D|-----------------|-----------------|-----------------|----------------------------------|
A|-5-5-5-5-5-5-5-5-|-1-1-1-1-1-1-1-1-|-3-3-3-3-3-3-3-3-|-1-3-3-3-3-3-3-3-3-3-3-3-3-3-3-1--|
E|-----------------|-----------------|-----------------|----------------------------------|

[Verse] x4

G|-----------|-------------|---------|---------------|
D|-----------|-------------|---------|---------------|
A|--5--3-----|-5--3--------|-5--3----|---------------|
E|--------1--|------1-1-1--|------1--|-3-3-3--6-6-6--|

[Chorus] x2

G|-----------------|-----------------|-----------------|---------|---------|---------|---------|
D|-----------------|-----------------|-----------------|---------|---------|---------|---------|
A|-5-5-5-5-5-5-5-5-|-1-1-1-1-1-1-1-1-|-3-3-3-3-3-3-3-3-|-1-1-1-1-|-0-0-0-0-|---------|---------|
E|-----------------|-----------------|-----------------|---------|---------|-3-3-3-3-|1-1-1-1--|


G|-----------------|-----------------|-----------------|----------------------------------|
D|-----------------|-----------------|-----------------|----------------------------------|
A|-5-5-5-5-5-5-5-5-|-1-1-1-1-1-1-1-1-|-3-3-3-3-3-3-3-3-|-1-3-3-3-3-3-3-3-3-3-3-3-3-3-3-1--|
E|-----------------|-----------------|-----------------|----------------------------------|


[Chorus Continuation]

G|-----------------|----------------------------|
D|-----------------|----------------------------|
A|-3-3-3-3-3-3-3-3-|-1-3-3-3-3-3-3-3-3-3-3-3-3--|
E|-----------------|----------------------------|


[Outro]


G|-----------|-------------|---------|-----------|
D|-----------|-------------|---------|-----------|
A|--5--3-----|-5--3--------|-5--3----|-----------|
E|--------1--|------1-1-1--|------1--|-3-3-3--6--|



That's all
Enjoy and Rate
Suggest correction
Give kudos to tab author, rate the tab!
1 2 3 4 5
comments
print report bad tab
guest
You may want to rate the tab now too:
select rating
Wanna post a correction for this tab? Suggest correction