Oops, an error
Loading. Please wait.

End Of The Line Bass Tab

13 views 1 this week
no commentswrite comment
1 2 3 4 5
3 more votes to show rating
add to favorites
launch autoscroll
font size
0
reset
guitar tuner
Autoscroll
slow
fast
+/-
esc
set tempo
stop
Help us to improve Ultimate-Guitar.com Take our survey!
×
Author
Difficulty
novice
                             VICE SQUAD - END OF THE LINE

Tabbed by: Rottney (reconssuck)
E-mail: reconssuck@hotmail.de

Artist: Vice Squad
Song: End Of The Line
Album: Punk Rock Radio (2011)



Tuning: Standard (EADG)



[Intro]

G|---------|---------|---------|---------|---------|---------|---------|----------|
D|---------|---------|---------|---------|---------|---------|---------|----------|
A|---------|---------|---------|-8-7-5-7-|---------|---------|---------|-8-10-7---|
E|-5-5-5-5-|-7-7-7-7-|-8-8-8-8-|---------|-5-5-5-5-|-7-7-7-7-|-8-8-8-8-|--------8-|


G|---------|---------|---------|---------|---------|---------|-----------------|
D|---------|---------|---------|---------|---------|---------|-----------------|
A|---------|---------|-8-8-8-8-|-7-7-7-7-|---------|---------|-3-3-3-3-3-3-3-3-|
E|-5-5-5-5-|-7-7-7-7-|---------|---------|-3-3-3-3-|-1-1-1-1-|-----------------|

[Verse] x4

G|---------|---------|---------|---------|
D|---------|---------|---------|---------|
A|---------|---------|---------|---------|
E|-0-0-0-0-|-0-0-0-0-|-0-0-0-0-|-0-0-0-0-|

[Chorus]

G|---------|---------|---------|---------|---------|---------|---------|----------|
D|---------|---------|---------|---------|---------|---------|---------|----------|
A|---------|---------|---------|-8-7-5-7-|---------|---------|---------|-8-10-7---|
E|-5-5-5-5-|-7-7-7-7-|-8-8-8-8-|---------|-5-5-5-5-|-7-7-7-7-|-8-8-8-8-|--------8-|


G|---------|---------|---------|---------|---------|---------|-----------------|
D|---------|---------|---------|---------|---------|---------|-----------------|
A|---------|---------|-8-8-8-8-|-7-7-7-7-|---------|---------|-3-3-3-3-3-3-3-3-|
E|-5-5-5-5-|-7-7-7-7-|---------|---------|-3-3-3-3-|-1-1-1-1-|-----------------|


[Verse] x4

G|---------|---------|---------|---------|
D|---------|---------|---------|---------|
A|---------|---------|---------|---------|
E|-0-0-0-0-|-0-0-0-0-|-0-0-0-0-|-0-0-0-0-|

[Chorus]

G|---------|---------|---------|---------|---------|---------|---------|----------|
D|---------|---------|---------|---------|---------|---------|---------|----------|
A|---------|---------|---------|-8-7-5-7-|---------|---------|---------|-8-10-7---|
E|-5-5-5-5-|-7-7-7-7-|-8-8-8-8-|---------|-5-5-5-5-|-7-7-7-7-|-8-8-8-8-|--------8-|


G|---------|---------|---------|---------|---------|---------|-----------------|
D|---------|---------|---------|---------|---------|---------|-----------------|
A|---------|---------|-8-8-8-8-|-7-7-7-7-|---------|---------|-3-3-3-3-3-3-3-3-|
E|-5-5-5-5-|-7-7-7-7-|---------|---------|-3-3-3-3-|-1-1-1-1-|-----------------|

[Bridge] x2

G|---------|---------|-------------------------|
D|---------|---------|-------------------------|
A|---------|---------|-------------------------|
E|-0-0-0-0-|-0-0-0-0-|-12-12-12-12-12-12-12-12-|


[Verse] x8

G|---------|---------|---------|---------|
D|---------|---------|---------|---------|
A|---------|---------|---------|---------|
E|-0-0-0-0-|-0-0-0-0-|-0-0-0-0-|-0-0-0-0-|

[Chorus] x2

G|---------|---------|---------|---------|---------|---------|---------|----------|
D|---------|---------|---------|---------|---------|---------|---------|----------|
A|---------|---------|---------|-8-7-5-7-|---------|---------|---------|-8-10-7---|
E|-5-5-5-5-|-7-7-7-7-|-8-8-8-8-|---------|-5-5-5-5-|-7-7-7-7-|-8-8-8-8-|--------8-|


G|---------|---------|---------|---------|---------|---------|-----------------|
D|---------|---------|---------|---------|---------|---------|-----------------|
A|---------|---------|-8-8-8-8-|-7-7-7-7-|---------|---------|-----------------|
E|-5-5-5-5-|-7-7-7-7-|---------|---------|-3-3-3-3-|-1-1-1-1-|-3-3-3-3-3-3-3-3-|

[Outro] x2


G|---------|---------|-----------------|
D|---------|---------|-----------------|
A|---------|---------|-----------------|
E|-3-3-3-3-|-1-1-1-1-|-3-3-3-3-3-3-3-3-|

[End]

G|---------|---------|----|
D|---------|---------|----|
A|---------|---------|----|
E|-3-3-3-3-|-1-1-1-1-|-3--|



That's All
Enjoy and Rate
Suggest correction
Give kudos to tab author, rate the tab!
1 2 3 4 5
comments
print report bad tab
guest
You may want to rate the tab now too:
select rating
Wanna post a correction for this tab? Suggest correction