Oops, an error
Loading. Please wait.

Humane Bass Tab

1 view 1 this week
no commentswrite comment
1 2 3 4 5
3 more votes to show rating
add to favorites
launch autoscroll
font size
0
reset
guitar tuner
Autoscroll
slow
fast
+/-
esc
set tempo
stop
Help us to improve Ultimate-Guitar.com Take our survey!
×
Author
Difficulty
novice
                             VICE SQUAD - HUMANE

Tabbed by: Rottney (reconssuck)
E-mail: reconssuck@hotmail.de

Artist: Vice Squad
Song: Humane
Album: Stand Strong Stand Proud (1982)
Bassist: Mark Hambly

Tuning: Standard (EADG)


[Intro] x2

G|------------------|
D|------------------|
A|------------------|
E|-5--4--0--2--0--2-|


[Verse]

G|---------------|---------------|---------------|---------|
D|---------------|---------------|---------------|---------|
A|---------------|---------------|---------------|---------|
E|-5-5-5-5-5-5-5-|-8-8-8-8-8-8-8-|-3-3-3-3-3-3-3-|-1-1-0-0-|


G|---------------|---------------|---------------|---------|--------------|
D|---------------|---------------|---------------|---------|--------------|
A|---------------|---------------|---------------|---------|--------------|
E|-5-5-5-5-5-5-5-|-8-8-8-8-8-8-8-|-3-3-3-3-3-3-3-|-1-1-0-0-|-5--5--7-8-9--|

[Chorus] x8 (listen closely for exact timing)

G|---------------|-----------|
D|---------------|-----------|
A|---------------|-4--3--2---|
E|-5--4--2--0--2-|-----------|

[Verse]

G|---------------|---------------|---------------|---------|
D|---------------|---------------|---------------|---------|
A|---------------|---------------|---------------|---------|
E|-5-5-5-5-5-5-5-|-8-8-8-8-8-8-8-|-3-3-3-3-3-3-3-|-1-1-0-0-|


G|---------------|---------------|---------------|---------|--------------|
D|---------------|---------------|---------------|---------|--------------|
A|---------------|---------------|---------------|---------|--------------|
E|-5-5-5-5-5-5-5-|-8-8-8-8-8-8-8-|-3-3-3-3-3-3-3-|-1-1-0-0-|-5--5--7-8-9--|

[Chorus] x8

G|---------------|-----------|
D|---------------|-----------|
A|---------------|-4--3--2---|
E|-5--4--2--0--2-|-----------|

[Verse]

G|---------------|---------------|---------------|---------|
D|---------------|---------------|---------------|---------|
A|---------------|---------------|---------------|---------|
E|-5-5-5-5-5-5-5-|-8-8-8-8-8-8-8-|-3-3-3-3-3-3-3-|-1-1-0-0-|


G|---------------|---------------|---------------|---------|--------------|
D|---------------|---------------|---------------|---------|--------------|
A|---------------|---------------|---------------|---------|--------------|
E|-5-5-5-5-5-5-5-|-8-8-8-8-8-8-8-|-3-3-3-3-3-3-3-|-1-1-0-0-|-5--5--7-8-9--|

[Bridge]

G|--------|--------|--------|--------|
D|--------|--------|--------|--------|
A|--------|--------|--------|--------|
E|-5------|-8------|-3------|-1--0---|


G|--------|--------|--------|--------|--------------|
D|--------|--------|--------|--------|--------------|
A|--------|--------|--------|--------|--------------|
E|-5------|-8------|-3------|-1--0---|-5--5--7-8-9--|

[Chorus] x8

G|---------------|-----------|
D|---------------|-----------|
A|---------------|-4--3--2---|
E|-5--4--2--0--2-|-----------|

[Verse]

G|---------------|---------------|---------------|---------|
D|---------------|---------------|---------------|---------|
A|---------------|---------------|---------------|---------|
E|-5-5-5-5-5-5-5-|-8-8-8-8-8-8-8-|-3-3-3-3-3-3-3-|-1-1-0-0-|


G|---------------|---------------|---------------|---------|--------------|
D|---------------|---------------|---------------|---------|--------------|
A|---------------|---------------|---------------|---------|--------------|
E|-5-5-5-5-5-5-5-|-8-8-8-8-8-8-8-|-3-3-3-3-3-3-3-|-1-1-0-0-|-5--5--7-8-9--|

[Chorus] x8

G|---------------|-----------|
D|---------------|-----------|
A|---------------|-4--3--2---|
E|-5--4--2--0--2-|-----------|

[Verse]

G|---------------|---------------|---------------|---------|
D|---------------|---------------|---------------|---------|
A|---------------|---------------|---------------|---------|
E|-5-5-5-5-5-5-5-|-8-8-8-8-8-8-8-|-3-3-3-3-3-3-3-|-1-1-0-0-|


G|---------------|---------------|---------------|---------|--------------|
D|---------------|---------------|---------------|---------|--------------|
A|---------------|---------------|---------------|---------|--------------|
E|-5-5-5-5-5-5-5-|-8-8-8-8-8-8-8-|-3-3-3-3-3-3-3-|-1-1-0-0-|-5--5--7-8-9--|


[Bridge]

G|--------|--------|--------|--------|
D|--------|--------|--------|--------|
A|--------|--------|--------|--------|
E|-5------|-8------|-3------|-1--0---|


G|--------|--------|--------|--------|--------------|
D|--------|--------|--------|--------|--------------|
A|--------|--------|--------|--------|--------------|
E|-5------|-8------|-3------|-1--0---|-5--5--7-8-9--|


[Outro] x10

G|---------------|
D|---------------|
A|---------------|
E|-5-5-5-2-2-2-2-|

(song quickly fades out)



That's All
Enjoy and Rate
Suggest correction
Give kudos to tab author, rate the tab!
1 2 3 4 5
comments
print report bad tab
guest
You may want to rate the tab now too:
select rating
Wanna post a correction for this tab? Suggest correction