Oops, an error
Loading. Please wait.

Last Rockers Bass Tab

version 1
version 1

Whole song

Interactive

7 views 1 this week
no commentswrite comment
1 2 3 4 5
3 more votes to show rating
add to favorites
launch autoscroll
font size
0
reset
guitar tuner
Autoscroll
slow
fast
+/-
esc
set tempo
stop
Help us to improve Ultimate-Guitar.com Take our survey!
×
Author
Difficulty
novice
VICE SQUAD - LAST ROCKERS

Tabbed by: Rottney (reconssuck)
E-mail: reconssuck@hotmail.de

Artist: Vice Squad
Song: Last Rockers
Album: No Cause for Concern (1981)
Bassist: Mark Hambly

Tuning: Standard (EADG)



(bass is silent during intro, at the last part play)


[Intro End]

G|---------|
D|---------|
A|---------|
E|--5--5---|


[Chorus] 

G|---------------|---------------|---------------|---------------|
D|---------------|---------------|---------------|---------------|
A|-5-5-5-5-5-5-5-|-8-8-8-8-8-8-8-|---------------|---------------|
E|---------------|---------------|-8-8-8-8-8-8-8-|-7-7-7-7-7-7-7-|(x3)


[Chorus End]

G|---------------|---------------|---------------|---------------|-----------------|
D|---------------|---------------|---------------|---------------|-----------------|
A|-5-5-5-5-5-5-5-|-8-8-8-8-8-8-8-|---------------|---------------|-----------------|
E|---------------|---------------|-8-8-8-8-8-8-8-|-7-7-7-7-7-7-7-|-3-3-3-3-3-3-3-3-|


[Verse] 

G|---------------|---------------|---------------|
D|---------------|---------------|---------------|
A|---------------|-5-5-5-5-5-5-5-|-8-8-8-8-8-8-8-|
E|-5-5-5-5-5-5-5-|---------------|---------------|(x3)


[Verse End]

G|---------------|---------------|---------------|---------------|----------|
D|---------------|---------------|---------------|---------------|----------|
A|---------------|-5-5-5-5-5-5-5-|-8-8-8-8-8-8-8-|-6-6-6-6-6-6-6-|-8---5----|
E|-5-5-5-5-5-5-5-|---------------|---------------|---------------|----------|


[Chorus] 

G|---------------|---------------|---------------|---------------|
D|---------------|---------------|---------------|---------------|
A|-5-5-5-5-5-5-5-|-8-8-8-8-8-8-8-|---------------|---------------|
E|---------------|---------------|-8-8-8-8-8-8-8-|-7-7-7-7-7-7-7-|(x3)


[Chorus End]

G|---------------|---------------|---------------|---------------|-----------------|
D|---------------|---------------|---------------|---------------|-----------------|
A|-5-5-5-5-5-5-5-|-8-8-8-8-8-8-8-|---------------|---------------|-----------------|
E|---------------|---------------|-8-8-8-8-8-8-8-|-7-7-7-7-7-7-7-|-3-3-3-3-3-3-3-3-|


[Verse] 

G|---------------|---------------|---------------|
D|---------------|---------------|---------------|
A|---------------|-5-5-5-5-5-5-5-|-8-8-8-8-8-8-8-|
E|-5-5-5-5-5-5-5-|---------------|---------------|(x3)


[Verse End]

G|---------------|---------------|---------------|---------------|----------|
D|---------------|---------------|---------------|---------------|----------|
A|---------------|-5-5-5-5-5-5-5-|-8-8-8-8-8-8-8-|-6-6-6-6-6-6-6-|-8---5----|
E|-5-5-5-5-5-5-5-|---------------|---------------|---------------|----------|


[Bridge] 

G|-------------------------|-------------------------|-------------------------|------------------------|
D|-------------------------|-------------------------|-------------------------|------------------------|
A|-5-0-0-5-0-0-5-0-0-5-0-0-|-8-0-0-8-0-0-8-0-0-8-0-0-|-3-0-0-3-0-0-3-0-0-3-0-0-|2-0-0-2-0-0-2-0-0-2-0-0-|
E|-------------------------|-------------------------|-------------------------|------------------------|(x4)


[Bridge End]

G|-------------------------|
D|-------------------------|
A|-------------------------|
E|-3-3-3-3-3-3-3-3-3-3-3-3-|


[Verse] 

G|---------------|---------------|---------------|
D|---------------|---------------|---------------|
A|---------------|-5-5-5-5-5-5-5-|-8-8-8-8-8-8-8-|
E|-5-5-5-5-5-5-5-|---------------|---------------|(x3)


[Verse End]

G|---------------|---------------|---------------|---------------|----------|
D|---------------|---------------|---------------|---------------|----------|
A|---------------|-5-5-5-5-5-5-5-|-8-8-8-8-8-8-8-|-6-6-6-6-6-6-6-|-8---5----|
E|-5-5-5-5-5-5-5-|---------------|---------------|---------------|----------|


[Chorus] 

G|---------------|---------------|---------------|---------------|
D|---------------|---------------|---------------|---------------|
A|-5-5-5-5-5-5-5-|-8-8-8-8-8-8-8-|---------------|---------------|
E|---------------|---------------|-8-8-8-8-8-8-8-|-7-7-7-7-7-7-7-|(x3)


[Chorus End]

G|---------------|---------------|---------------|---------------|-----------------|
D|---------------|---------------|---------------|---------------|-----------------|
A|-5-5-5-5-5-5-5-|-8-8-8-8-8-8-8-|---------------|---------------|-----------------|
E|---------------|---------------|-8-8-8-8-8-8-8-|-7-7-7-7-7-7-7-|-3-3-3-3-3-3-3-3-|


[Verse] 

G|---------------|---------------|---------------|
D|---------------|---------------|---------------|
A|---------------|-5-5-5-5-5-5-5-|-8-8-8-8-8-8-8-|
E|-5-5-5-5-5-5-5-|---------------|---------------|(x3)


[Verse End]

G|---------------|---------------|---------------|---------------|----------|
D|---------------|---------------|---------------|---------------|----------|
A|---------------|-5-5-5-5-5-5-5-|-8-8-8-8-8-8-8-|-6-6-6-6-6-6-6-|-8---5----|
E|-5-5-5-5-5-5-5-|---------------|---------------|---------------|----------|


[Outro] 

G|-----------------|-----------------|-----------------|-----------------|
D|-----------------|-----------------|-----------------|-----------------|
A|-5-0-5-0-5-0-5-0-|-8-0-8-0-8-0-8-0-|-3-0-3-0-3-0-3-0-|-2-0-2-0-2-0-2-0-|
E|-----------------|-----------------|-----------------|-----------------|(x7)


[Outro End]

G|-------------------------|-----|
D|-------------------------|-----|
A|-------------------------|-----|
E|-3-3-3-3-3-3-3-3-3-3-3-3-|-3---|


(An alternate way to play the verse, is to accent the drumbeat like this)

[Verse]

G|-----------------|---------------|---------------|
D|-----------------|---------------|---------------|
A|---7---7---7---7-|-5-5-5-5-5-5-5-|-8-8-8-8-8-8-8-|
E|-5---5---5---5---|---------------|---------------|

(however this is not in the original song, just how i like to do it)
Suggest correction
Give kudos to tab author, rate the tab!
1 2 3 4 5
comments
print report bad tab
guest
You may want to rate the tab now too:
select rating
Wanna post a correction for this tab? Suggest correction