Oops, an error
Loading. Please wait.

Latex Love Bass Tab

version 2
version 2

Whole song

  • The other Bass Tab is missing song parts, is in in... Show more
4 views 1 this week
no commentswrite comment
1 2 3 4 5
3 more votes to show rating
add to favorites
launch autoscroll
font size
0
reset
guitar tuner
Autoscroll
slow
fast
+/-
esc
set tempo
stop
Help us to improve Ultimate-Guitar.com Take our survey!
×
Author
Difficulty
novice
About this tab version
The other Bass Tab is missing song parts, is in incorrect format and does not indicate how often each part needs to be repeated. Was this info helpful? Yes No
                             VICE SQUAD - LATEX LOVE

Tabbed by: Rottney (reconssuck)
E-mail: reconssuck@hotmail.de

Artist: Vice Squad
Song: Latex Love
Album: Last Rockers EP (1980)
Bassist: Mark Hambly


Tuning: Standard (EADG)




[Main Riff 1] x8

G|---------|---------|---------|------------|
D|---------|---------|---------|------------|
A|---------|---------|---------|------4--6--|
E|-7-7-6-6-|-7-7-6-6-|-7-7-6-6-|-4--6-------|


[Chorus] x2

G|---------------------------|-------|
D|---------------------------|-------|
A|---------------------------|-------|
E|-2-2-2-2-2-2-2-2-2-2-2-2-2-|-4-4-4-|

[Main Riff 1] x4

G|---------|---------|---------|------------|
D|---------|---------|---------|------------|
A|---------|---------|---------|------4--6--|
E|-7-7-6-6-|-7-7-6-6-|-7-7-6-6-|-4--6-------|

[Chorus] x2

G|---------------------------|-------|
D|---------------------------|-------|
A|---------------------------|-------|
E|-2-2-2-2-2-2-2-2-2-2-2-2-2-|-4-4-4-|

[Bridge] x4

G|-----------------|
D|-----------------|
A|-----------------|
E|-7-7-6-6-5-5-4-4-|

[Chorus] x2

G|---------------------------|-------|
D|---------------------------|-------|
A|---------------------------|-------|
E|-2-2-2-2-2-2-2-2-2-2-2-2-2-|-4-4-4-|

[Main Riff 1] x4

G|---------|---------|---------|------------|
D|---------|---------|---------|------------|
A|---------|---------|---------|------4--6--|
E|-7-7-6-6-|-7-7-6-6-|-7-7-6-6-|-4--6-------|

[Chorus] x2

G|---------------------------|-------|
D|---------------------------|-------|
A|---------------------------|-------|
E|-2-2-2-2-2-2-2-2-2-2-2-2-2-|-4-4-4-|

[Outro]


G|---------|---------|---------|----------------|
D|---------|---------|---------|----------------|
A|---------|---------|---------|----------------|
E|-7-7-6-6-|-7-7-6-6-|-7-7-6-6-|-4-4-4-4---4--4-|

(song gradually slows down every measure here)




That's all.
Enjoy and Rate.

Suggest correction
Give kudos to tab author, rate the tab!
1 2 3 4 5
comments
print report bad tab
guest
You may want to rate the tab now too:
select rating
Wanna post a correction for this tab? Suggest correction