Oops, an error
Loading. Please wait.

Living On Dreams Bass Tab

4 views 1 this week
no commentswrite comment
1 2 3 4 5
3 more votes to show rating
add to favorites
launch autoscroll
font size
0
reset
guitar tuner
Autoscroll
slow
fast
+/-
esc
set tempo
stop
Help us to improve Ultimate-Guitar.com Take our survey!
×
Author
Difficulty
novice
                             VICE SQUAD - LIVING ON DREAMS

Tabbed by: Rottney (reconssuck)
E-mail: reconssuck@hotmail.de

Artist: Vice Squad
Song: Living On Dreams
Album: No Cause for Concern (1981)
Bassist: Mark Hambly

Tuning: Standard (EADG)


[Intro]

G|-------------------------------|
D|-------------------------------|
A|-------------------------------|
E|-8-8-8-8-8-8-8-8-8-8-8-8-8-8-8-|


[Chorus] x4

G|-------|------------------------|
D|-------|------------------------|
A|-------|------------------------|
E|-8-8-8-|-5-5-5-5-5-5-5-5-5-5-5--|

[Chorus Variation]

G|-----------------|----------------------------|-----|
D|-----------------|----------------------------|-----|
A|-8-8-8-8-8-8-8-8-|-10-10-10-10-10-10-10-10-10-|-9-9-|
E|-----------------|----------------------------|-----|


[Chorus] 

G|-------|------------------------|
D|-------|------------------------|
A|-------|------------------------|
E|-8-8-8-|-5-5-5-5-5-5-5-5-5-5-5--|

[Chorus End]

G|-------|------------------------|-------------|
D|-------|------------------------|-------------|
A|-------|------------------------|-------------|
E|-8-8-8-|-5-5-5-5-5-5-5-5-5-5-5--|-3-3-3-3-3-3-|

[Verse] x2


G|----------------|---------|---------|-----------------|---------|---------|
D|----------------|---------|---------|-----------------|---------|---------|
A|----------------|---------|---------|-----------------|--5-5-5--|--4-4-4--|
E|--5-5-5-5-5-5-5-|--1-1----|--3-3-3--|--5-5-5-5-5-5-5--|---------|---------|


[Verse End]

G|----------------|----------------|----------------|-----------------------|
D|----------------|----------------|----------------|-----------------------|
A|----------------|----------------|----------------|--5-5-5-5-5-5-5-5-5-5--|
E|--5-5-5-5-5-5-5-|--7-7-7-7-7-7-7-|--8-8-8-8-8-8-8-|-----------------------|

[Chorus] x4

G|-------|------------------------|
D|-------|------------------------|
A|-------|------------------------|
E|-8-8-8-|-5-5-5-5-5-5-5-5-5-5-5--|

[Chorus Variation]

G|-----------------|----------------------------|-----|
D|-----------------|----------------------------|-----|
A|-8-8-8-8-8-8-8-8-|-10-10-10-10-10-10-10-10-10-|-9-9-|
E|-----------------|----------------------------|-----|


[Chorus] 

G|-------|------------------------|
D|-------|------------------------|
A|-------|------------------------|
E|-8-8-8-|-5-5-5-5-5-5-5-5-5-5-5--|

[Chorus End]

G|-------|------------------------|-------------|
D|-------|------------------------|-------------|
A|-------|------------------------|-------------|
E|-8-8-8-|-5-5-5-5-5-5-5-5-5-5-5--|-3-3-3-3-3-3-|

[Verse] x2


G|----------------|---------|---------|-----------------|---------|---------|
D|----------------|---------|---------|-----------------|---------|---------|
A|----------------|---------|---------|-----------------|--5-5-5--|--4-4-4--|
E|--5-5-5-5-5-5-5-|--1-1----|--3-3-3--|--5-5-5-5-5-5-5--|---------|---------|

[Verse End]

G|----------------|----------------|----------------|-----------------------|
D|----------------|----------------|----------------|-----------------------|
A|----------------|----------------|----------------|--5-5-5-5-5-5-5-5-5-5--|
E|--5-5-5-5-5-5-5-|--7-7-7-7-7-7-7-|--8-8-8-8-8-8-8-|-----------------------|

[Chorus] x4

G|-------|------------------------|
D|-------|------------------------|
A|-------|------------------------|
E|-8-8-8-|-5-5-5-5-5-5-5-5-5-5-5--|

[Chorus Variation 2]

G|-----------------|--------------------|------|
D|-----------------|--------------------|------|
A|-----------------|--------------------|------|
E|-1-1-1-1-1-1-1-1-|-3-3-3-3-3-3-3-3-3--|-2-2--|

[Chorus] 

G|-------|------------------------|
D|-------|------------------------|
A|-------|------------------------|
E|-8-8-8-|-5-5-5-5-5-5-5-5-5-5-5--|

[Chorus End]

G|-------|------------------------|-------------|
D|-------|------------------------|-------------|
A|-------|------------------------|-------------|
E|-8-8-8-|-5-5-5-5-5-5-5-5-5-5-5--|-3-3-3-3-3-3-|

[Verse] x2


G|----------------|---------|---------|-----------------|---------|---------|
D|----------------|---------|---------|-----------------|---------|---------|
A|----------------|---------|---------|-----------------|--5-5-5--|--4-4-4--|
E|--5-5-5-5-5-5-5-|--1-1----|--3-3-3--|--5-5-5-5-5-5-5--|---------|---------|

[Verse End]

G|----------------|----------------|----------------|-----------------------|
D|----------------|----------------|----------------|-----------------------|
A|----------------|----------------|----------------|--5-5-5-5-5-5-5-5-5-5--|
E|--5-5-5-5-5-5-5-|--7-7-7-7-7-7-7-|--8-8-8-8-8-8-8-|-----------------------|

[Chorus] x4

G|-------|------------------------|
D|-------|------------------------|
A|-------|------------------------|
E|-8-8-8-|-5-5-5-5-5-5-5-5-5-5-5--|

[Chorus Variation]

G|-----------------|----------------------------|-----|
D|-----------------|----------------------------|-----|
A|-8-8-8-8-8-8-8-8-|-10-10-10-10-10-10-10-10-10-|-9-9-|
E|-----------------|----------------------------|-----|


[Chorus] 

G|-------|------------------------|
D|-------|------------------------|
A|-------|------------------------|
E|-8-8-8-|-5-5-5-5-5-5-5-5-5-5-5--|

[Chorus End]

G|-------|------------------------|-------------|
D|-------|------------------------|-------------|
A|-------|------------------------|-------------|
E|-8-8-8-|-5-5-5-5-5-5-5-5-5-5-5--|-3-3-3-3-3-3-|

[Verse] x2


G|----------------|---------|---------|-----------------|---------|---------|
D|----------------|---------|---------|-----------------|---------|---------|
A|----------------|---------|---------|-----------------|--5-5-5--|--4-4-4--|
E|--5-5-5-5-5-5-5-|--1-1----|--3-3-3--|--5-5-5-5-5-5-5--|---------|---------|

[Verse End]

G|----------------|----------------|----------------|-----------------------|
D|----------------|----------------|----------------|-----------------------|
A|----------------|----------------|----------------|--5-5-5-5-5-5-5-5-5-5--|
E|--5-5-5-5-5-5-5-|--7-7-7-7-7-7-7-|--8-8-8-8-8-8-8-|-----------------------|

[Chorus] x4

G|-------|------------------------|
D|-------|------------------------|
A|-------|------------------------|
E|-8-8-8-|-5-5-5-5-5-5-5-5-5-5-5--|

[Chorus Variation]

G|-----------------|----------------------------|-----|
D|-----------------|----------------------------|-----|
A|-8-8-8-8-8-8-8-8-|-10-10-10-10-10-10-10-10-10-|-9-9-|
E|-----------------|----------------------------|-----|


[Chorus] 

G|-------|------------------------|
D|-------|------------------------|
A|-------|------------------------|
E|-8-8-8-|-5-5-5-5-5-5-5-5-5-5-5--|

[Chorus End]

G|-------|------------------------|-------------|
D|-------|------------------------|-------------|
A|-------|------------------------|-------------|
E|-8-8-8-|-5-5-5-5-5-5-5-5-5-5-5--|-3-3-3-3-3-3-|


[Verse] x2


G|----------------|---------|---------|-----------------|---------|---------|
D|----------------|---------|---------|-----------------|---------|---------|
A|----------------|---------|---------|-----------------|--5-5-5--|--4-4-4--|
E|--5-5-5-5-5-5-5-|--1-1----|--3-3-3--|--5-5-5-5-5-5-5--|---------|---------|

[Verse End]

G|----------------|----------------|----------------|-----------------------|
D|----------------|----------------|----------------|-----------------------|
A|----------------|----------------|----------------|--5-5-5-5-5-5-5-5-5-5--|
E|--5-5-5-5-5-5-5-|--7-7-7-7-7-7-7-|--8-8-8-8-8-8-8-|-----------------------|


[Chorus] x3

G|-------|------------------------|
D|-------|------------------------|
A|-------|------------------------|
E|-8-8-8-|-5-5-5-5-5-5-5-5-5-5-5--|

[Last Chorus]

G|-------|-------|
D|-------|-------|
A|-------|-------|
E|-8-8-8-|-5-----|


That's all.
Enjoy and Rate.
Suggest correction
Give kudos to tab author, rate the tab!
1 2 3 4 5
comments
print report bad tab
guest
You may want to rate the tab now too:
select rating
Wanna post a correction for this tab? Suggest correction