Oops, an error
Loading. Please wait.

Punk Is The Blues Bass Tab

4 views 1 this week
no commentswrite comment
1 2 3 4 5
3 more votes to show rating
add to favorites
launch autoscroll
font size
0
reset
guitar tuner
Autoscroll
slow
fast
+/-
esc
set tempo
stop
Help us to improve Ultimate-Guitar.com Take our survey!
×
Author
Difficulty
novice
                             VICE SQUAD - PUNK IS THE BLUES

Tabbed by: Rottney (reconssuck)
E-mail: reconssuck@hotmail.de

Artist: Vice Squad
Song: Punk Is The Blues
Album: Punk Rock Radio (2011)



[Intro] x4

G|--------|----------|-----------|--------------|
D|-7------|-7-7------|-7---------|--------------|
A|---7-8--|-----7-8--|---7-8-7---|-5-5-5-5-5-5--|
E|--------|----------|-----------|--------------|


[Verse] x2

G|-----------------------|-----|-----------------------|------|
D|-----------------------|-3-2-|-----------------------|-3-2--|
A|-3-3-3-3-3-3-3-3-3-3-3-|-----|-5-5-5-5-5-5-5-5-5-5-5-|------|
E|-----------------------|-----|-----------------------|------|


[Pre-Chorus]

G|--------------------|--------------------------|
D|-7-7--3-3--5-5--2-2-|-3-3--5-5--2-2-2-2-2-2-2--|
A|--------------------|--------------------------|
E|--------------------|--------------------------|

[Chorus] x2


G|--------|----------|-----------|--------------|
D|-7------|-7-7------|-7---------|--------------|
A|---7-8--|-----7-8--|---7-8-7---|-5-5-5-5-5-5--|
E|--------|----------|-----------|--------------|

[Verse] x2

G|-----------------------|-----|-----------------------|------|
D|-----------------------|-3-2-|-----------------------|-3-2--|
A|-3-3-3-3-3-3-3-3-3-3-3-|-----|-5-5-5-5-5-5-5-5-5-5-5-|------|
E|-----------------------|-----|-----------------------|------|

[Pre-Chorus]

G|--------------------|--------------------------|
D|-7-7--3-3--5-5--2-2-|-3-3--5-5--2-2-2-2-2-2-2--|
A|--------------------|--------------------------|
E|--------------------|--------------------------|

[Chorus] x2


G|--------|----------|-----------|--------------|
D|-7------|-7-7------|-7---------|--------------|
A|---7-8--|-----7-8--|---7-8-7---|-5-5-5-5-5-5--|
E|--------|----------|-----------|--------------|

[Bridge] x4

G|-------------|-------------|-------------|------------|
D|-5-5-5-5-5-5-|-8-8-8-8-8-8-|-7-7-7-6-6-6-|-5-5-5-5-5--|
A|-------------|-------------|-------------|------------|
E|-------------|-------------|-------------|------------|

[Solo Backing] x2


G|--------|----------|-----------|--------------|
D|-7------|-7-7------|-7---------|--------------|
A|---7-8--|-----7-8--|---7-8-7---|-5-5-5-5-5-5--|
E|--------|----------|-----------|--------------|

[Verse] x2

G|-----------------------|-----|-----------------------|------|
D|-----------------------|-3-2-|-----------------------|-3-2--|
A|-3-3-3-3-3-3-3-3-3-3-3-|-----|-5-5-5-5-5-5-5-5-5-5-5-|------|
E|-----------------------|-----|-----------------------|------|

[Pre-Chorus]

G|--------------------|--------------------------|
D|-7-7--3-3--5-5--2-2-|-3-3--5-5--2-2-2-2-2-2-2--|
A|--------------------|--------------------------|
E|--------------------|--------------------------|


[Chorus] x4


G|--------|----------|-----------|--------------|
D|-7------|-7-7------|-7---------|--------------|
A|---7-8--|-----7-8--|---7-8-7---|-5-5-5-5-5-5--|
E|--------|----------|-----------|--------------|

[Outro] x3

G|-----------|--------------|
D|-7---------|--------------|
A|---7-8-7---|-5-5-5-5-5-5--|
E|-----------|--------------|




That's all
Enjoy and Rate
Suggest correction
Give kudos to tab author, rate the tab!
1 2 3 4 5
comments
print report bad tab
guest
You may want to rate the tab now too:
select rating
Wanna post a correction for this tab? Suggest correction