Oops, an error
Loading. Please wait.

Punk Rock Radio Bass Tab

1 view 1 this week
no commentswrite comment
1 2 3 4 5
3 more votes to show rating
add to favorites
launch autoscroll
font size
0
reset
guitar tuner
Autoscroll
slow
fast
+/-
esc
set tempo
stop
Help us to improve Ultimate-Guitar.com Take our survey!
×
Author
Difficulty
novice
                             VICE SQUAD - PUNK ROCK RADIO

Tabbed by: Rottney (reconssuck)
E-mail: reconssuck@hotmail.de

Artist: Vice Squad
Song: Punk Rock Radio
Album: Punk Rock Radio (2011)



[Intro]

G|--------|--------|-------|--------|
D|--------|--------|-------|--------|
A|-6------|-2------|-4-----|-8-8-6--|
E|--------|--------|-------|--------|

G|--------|--------|-------|------------|
D|--------|--------|-------|------------|
A|-6------|-2------|-4-----|-2---1------|
E|--------|--------|-------|---------4--|


[Verse] x2
 
G|-----------|-----------|-----------|---------|-----------|-----------|-----------|-------|
D|-----------|-----------|-----------|---------|-----------|-----------|-----------|-------|
A|-6-6-6-6-6-|-2-2-2-2-2-|-----------|---------|-6-6-6-6-6-|-2-2-2-2-2-|-----------|-------|
E|-----------|-----------|-2-2-2-2-2-|-4--6----|-----------|-----------|-2-2-2-2-2-|-4-2---|



[Chorus]

G|-----------------|-------------------|-----------------|------------|
D|-----------------|-------------------|-----------------|------------|
A|-6-6-6-6-6-6-6-6-|-2-2-2-2-2-2-2-2-2-|-4-4-4-4-4-4-4-4-|-8-8-6-6-6--|
E|-----------------|-------------------|-----------------|------------|

G|-----------------|-------------------|-----------------|------------------|-----------------|-------------|
D|-----------------|-------------------|-----------------|------------------|-----------------|-------------|
A|-6-6-6-6-6-6-6-6-|-2-2-2-2-2-2-2-2-2-|-4-4-4-4-4-4-4-4-|-2-2-2-2-2-2-2-2--|-1-1-1-1-1-1-1-1-|-------------|
E|-----------------|-------------------|-----------------|------------------|-----------------|-4-4-4-4-4-4-|


[Verse] x3

G|-----------|-----------|-----------|---------|-----------|-----------|-----------|-------|
D|-----------|-----------|-----------|---------|-----------|-----------|-----------|-------|
A|-6-6-6-6-6-|-2-2-2-2-2-|-----------|---------|-6-6-6-6-6-|-2-2-2-2-2-|-----------|-------|
E|-----------|-----------|-2-2-2-2-2-|-4--6----|-----------|-----------|-2-2-2-2-2-|-4-2---|

[Chorus]

G|-----------------|-------------------|-----------------|------------|
D|-----------------|-------------------|-----------------|------------|
A|-6-6-6-6-6-6-6-6-|-2-2-2-2-2-2-2-2-2-|-4-4-4-4-4-4-4-4-|-8-8-6-6-6--|
E|-----------------|-------------------|-----------------|------------|

G|-----------------|-------------------|-----------------|------------------|-----------------|-------------|
D|-----------------|-------------------|-----------------|------------------|-----------------|-------------|
A|-6-6-6-6-6-6-6-6-|-2-2-2-2-2-2-2-2-2-|-4-4-4-4-4-4-4-4-|-2-2-2-2-2-2-2-2--|-1-1-1-1-1-1-1-1-|-------------|
E|-----------------|-------------------|-----------------|------------------|-----------------|-4-4-4-4-4-4-|



[Bridge]

G|-------|-------|---------|--------|
D|-------|-------|---------|--------|
A|-------|-------|---------|-6-6-6--|
E|-4-3-2-|-4-3-2-|-4-3-2-3-|--------|


[Solo Backing]


G|-----------------|-------------------|-----------------|------------|
D|-----------------|-------------------|-----------------|------------|
A|-6-6-6-6-6-6-6-6-|-2-2-2-2-2-2-2-2-2-|-4-4-4-4-4-4-4-4-|-8-8-6-6-6--|
E|-----------------|-------------------|-----------------|------------|

G|-----------------|-------------------|-----------------|------------------|
D|-----------------|-------------------|-----------------|------------------|
A|-6-6-6-6-6-6-6-6-|-2-2-2-2-2-2-2-2-2-|-4-4-4-4-4-4-4-4-|-2-2-2-2-2-2-2-2--|
E|-----------------|-------------------|-----------------|------------------|

[Chorus]

G|-----------------|-------------------|-----------------|------------|
D|-----------------|-------------------|-----------------|------------|
A|-6-6-6-6-6-6-6-6-|-2-2-2-2-2-2-2-2-2-|-4-4-4-4-4-4-4-4-|-8-8-6-6-6--|
E|-----------------|-------------------|-----------------|------------|

G|-----------------|-------------------|-----------------|------------------|-----------------|-------------|
D|-----------------|-------------------|-----------------|------------------|-----------------|-------------|
A|-6-6-6-6-6-6-6-6-|-2-2-2-2-2-2-2-2-2-|-4-4-4-4-4-4-4-4-|-2-2-2-2-2-2-2-2--|-1-1-1-1-1-1-1-1-|-------------|
E|-----------------|-------------------|-----------------|------------------|-----------------|-4-4-4-4-4-4-|

[Outro]

G|-----------------|------------------|-----------------|-------------|
D|-----------------|------------------|-----------------|-------------|
A|-4-4-4-4-4-4-4-4-|-2-2-2-2-2-2-2-2--|-1-1-1-1-1-1-1-1-|-------------|
E|-----------------|------------------|-----------------|-4-4-4-4-4-4-|

[Outro 2] x4

G|-------|-------|---------|--------|
D|-------|-------|---------|--------|
A|-------|-------|---------|-6-6-6--|
E|-4-3-2-|-4-3-2-|-4-3-2-3-|--------|

[End]

G|--------|
D|--------|
A|--------|
E|-4----4-|





That's all
Enjoy and Rate
Suggest correction
Give kudos to tab author, rate the tab!
1 2 3 4 5
comments
print report bad tab
guest
You may want to rate the tab now too:
select rating
Wanna post a correction for this tab? Suggest correction