Oops, an error
Loading. Please wait.

Resurrection Bass Tab

4 views 1 this week
no commentswrite comment
1 2 3 4 5
3 more votes to show rating
add to favorites
launch autoscroll
font size
0
reset
guitar tuner
Autoscroll
slow
fast
+/-
esc
set tempo
stop
Help us to improve Ultimate-Guitar.com Take our survey!
×
Author
Difficulty
novice
                             VICE SQUAD - RESURRECTION

Tabbed by: Rottney (reconssuck)
E-mail: reconssuck@hotmail.de

Artist: Vice Squad
Song: Resurrection
Album: Resurrection EP
Bassist: Mark Hambly

Tuning: Standard (EADG)




[Intro]

G|--------|--------|--------|
D|--------|--------|--------|
A|-5------|-5------|-5------|
E|--------|--------|--------|



[Verse] x2

G|-----------|-----------|-----------|-----------|-----------|-----------|-----------------|
D|-----------|-----------|-----------|-----------|-----------|-----------|-----------------|
A|-3-3-3-3-3-|-----------|-3-3-3-3-3-|-----------|-3-3-3-3-3-|-----------|-----------------|
E|-----------|-0-0-0-0-0-|-----------|-0-0-0-0-0-|-----------|-0-0-0-0-3-|-3-3-3-3-3-3-3-3-|


G|---------------|-----------|-------------------------|
D|---------------|-----------|-------------------------|
A|---------------|-----------|-------------------------|
E|-5-5-5-5-5-5-5-|-7-7-5-5-7-|-0-0-0-0-0-0-0-0-0-0-0-0-|

G|---------------|---------------|-----------------|
D|---------------|---------------|-----------------|
A|---------------|---------------|-----------------|
E|-5-5-5-5-5-5-5-|-7-7-7-7-7-7-7-|-9-9-9-9-9-9-9-9-|


[Chorus]


G|-----------------------------------|-----------------------|-------------------------|
D|-----------------------------------|-----------------------|-------------------------|
A|-----------------------------------|-----------------------|-------------------------|
E|-2-2-2-2-2-2-2-2-2-2-2-2-2-2-2-2-2-|-4-4-4-4-4-4-4-5-5-4-4-|-7-7-7-7-7-7-7-8-8-8-7-7-|

G|-----------------------------------|-----------------------|-------------------------|-----------------|
D|-----------------------------------|-----------------------|-------------------------|-----------------|
A|-----------------------------------|-----------------------|-------------------------|-4-4-4-4-4-4-4---|
E|-2-2-2-2-2-2-2-2-2-2-2-2-2-2-2-2-2-|-4-4-4-4-4-4-4-5-5-4-4-|-7-7-7-7-7-7-7-8-8-8-7-7-|-----------------|


[Verse] x2

G|-----------|-----------|-----------|-----------|-----------|-----------|-----------------|
D|-----------|-----------|-----------|-----------|-----------|-----------|-----------------|
A|-3-3-3-3-3-|-----------|-3-3-3-3-3-|-----------|-3-3-3-3-3-|-----------|-----------------|
E|-----------|-0-0-0-0-0-|-----------|-0-0-0-0-0-|-----------|-0-0-0-0-3-|-3-3-3-3-3-3-3-3-|


G|---------------|-----------|-------------------------|
D|---------------|-----------|-------------------------|
A|---------------|-----------|-------------------------|
E|-5-5-5-5-5-5-5-|-7-7-5-5-7-|-0-0-0-0-0-0-0-0-0-0-0-0-|

G|---------------|---------------|-----------------|
D|---------------|---------------|-----------------|
A|---------------|---------------|-----------------|
E|-5-5-5-5-5-5-5-|-7-7-7-7-7-7-7-|-9-9-9-9-9-9-9-9-|

[Chorus]


G|-----------------------------------|-----------------------|-------------------------|
D|-----------------------------------|-----------------------|-------------------------|
A|-----------------------------------|-----------------------|-------------------------|
E|-2-2-2-2-2-2-2-2-2-2-2-2-2-2-2-2-2-|-4-4-4-4-4-4-4-5-5-4-4-|-7-7-7-7-7-7-7-8-8-8-7-7-|

G|-----------------------------------|-----------------------|-------------------------|-----------------|
D|-----------------------------------|-----------------------|-------------------------|-----------------|
A|-----------------------------------|-----------------------|-------------------------|-4-4-4-4-4-4-4---|
E|-2-2-2-2-2-2-2-2-2-2-2-2-2-2-2-2-2-|-4-4-4-4-4-4-4-5-5-4-4-|-7-7-7-7-7-7-7-8-8-8-7-7-|-----------------|


[Bridge]

G|--------|
D|--------|
A|-5------|
E|--------|

[Bridge Riff 2] x6

G|-------------|-------------------|-------------|-----------|
D|-------------|-------------------|-------------|-----------|
A|-5-5-5-5-5-5-|-10-10-10-10-10-10-|-8-8-10-10-8-|-5-5-5-5-5-|
E|-------------|-------------------|-------------|-----------|

[Verse] x2

G|-----------|-----------|-----------|-----------|-----------|-----------|-----------------|
D|-----------|-----------|-----------|-----------|-----------|-----------|-----------------|
A|-3-3-3-3-3-|-----------|-3-3-3-3-3-|-----------|-3-3-3-3-3-|-----------|-----------------|
E|-----------|-0-0-0-0-0-|-----------|-0-0-0-0-0-|-----------|-0-0-0-0-3-|-3-3-3-3-3-3-3-3-|


G|---------------|-----------|-------------------------|
D|---------------|-----------|-------------------------|
A|---------------|-----------|-------------------------|
E|-5-5-5-5-5-5-5-|-7-7-5-5-7-|-0-0-0-0-0-0-0-0-0-0-0-0-|

G|---------------|---------------|-----------------|
D|---------------|---------------|-----------------|
A|---------------|---------------|-----------------|
E|-5-5-5-5-5-5-5-|-7-7-7-7-7-7-7-|-9-9-9-9-9-9-9-9-|

[Chorus]


G|-----------------------------------|-----------------------|-------------------------|
D|-----------------------------------|-----------------------|-------------------------|
A|-----------------------------------|-----------------------|-------------------------|
E|-2-2-2-2-2-2-2-2-2-2-2-2-2-2-2-2-2-|-4-4-4-4-4-4-4-5-5-4-4-|-7-7-7-7-7-7-7-8-8-8-7-7-|

G|-----------------------------------|-----------------------|-------------------------|-----------------|
D|-----------------------------------|-----------------------|-------------------------|-----------------|
A|-----------------------------------|-----------------------|-------------------------|-4-4-4-4-4-4-4---|
E|-2-2-2-2-2-2-2-2-2-2-2-2-2-2-2-2-2-|-4-4-4-4-4-4-4-5-5-4-4-|-7-7-7-7-7-7-7-8-8-8-7-7-|-----------------|

[Verse] 

G|-----------|-----------|-----------|-----------|-----------|-----------|-----------------|
D|-----------|-----------|-----------|-----------|-----------|-----------|-----------------|
A|-3-3-3-3-3-|-----------|-3-3-3-3-3-|-----------|-3-3-3-3-3-|-----------|-----------------|
E|-----------|-0-0-0-0-0-|-----------|-0-0-0-0-0-|-----------|-0-0-0-0-3-|-3-3-3-3-3-3-3-3-|


G|---------------|-----------|-------------------------|
D|---------------|-----------|-------------------------|
A|---------------|-----------|-------------------------|
E|-5-5-5-5-5-5-5-|-7-7-5-5-7-|-0-0-0-0-0-0-0-0-0-0-0-0-|


G|---------------|---------------|-----------------|
D|---------------|---------------|-----------------|
A|---------------|---------------|-----------------|
E|-5-5-5-5-5-5-5-|-7-7-7-7-7-7-7-|-9-9-9-9-9-9-9-9-|

[Last Verse]

G|-----------|-----------|-----------|-----------|-----------|-----------|-----------------|
D|-----------|-----------|-----------|-----------|-----------|-----------|-----------------|
A|-3-3-3-3-3-|-----------|-3-3-3-3-3-|-----------|-3-3-3-3-3-|-----------|-----------------|
E|-----------|-0-0-0-0-0-|-----------|-0-0-0-0-0-|-----------|-0-0-0-0-3-|-3-3-3-3-3-3-3-3-|


G|---------------|-----------|-------------------------|
D|---------------|-----------|-------------------------|
A|---------------|-----------|-------------------------|
E|-5-5-5-5-5-5-5-|-7-7-5-5-7-|-0-0-0-0-0-0-0-0-0-0-0-0-|

G|---------------|---------------|-----------------|
D|---------------|---------------|-----------------|
A|---------------|---------------|-----------------|
E|-5-5-5-5-5-5-5-|-7-7-7-7-7-7-7-|-9-9-9--7-5-7-9--|




That's all
Enjoy and Rate
Suggest correction
Give kudos to tab author, rate the tab!
1 2 3 4 5
comments
print report bad tab
guest
You may want to rate the tab now too:
select rating
Wanna post a correction for this tab? Suggest correction