Oops, an error
Loading. Please wait.

Sick Of Being Poor Bass Tab

1 view 1 this week
no commentswrite comment
1 2 3 4 5
3 more votes to show rating
add to favorites
launch autoscroll
font size
0
reset
guitar tuner
Autoscroll
slow
fast
+/-
esc
set tempo
stop
Help us to improve Ultimate-Guitar.com Take our survey!
×
Author
Difficulty
novice
                             VICE SQUAD - SICK OF BEING POOR

Tabbed by: Rottney (reconssuck)
E-mail: reconssuck@hotmail.de

Artist: Vice Squad
Song: Sick Of Being Poor
Album: Punk Rock Radio (2011)





[Intro]

G|-----|-----|-----|-----|-----|-----|-----|-----|-----|-----|-----|-----|-----|------|
D|-----|-----|-----|-----|-----|-----|-----|-----|-----|-----|-----|-----|-----|------|
A|-3---|-3---|-3---|-3---|-3---|-3---|-3---|-3---|-3---|-3---|-3---|-3---|-3---|------|
E|-----|-----|-----|-----|-----|-----|-----|-----|-----|-----|-----|-----|-----|-5-3--|


[Chorus]

G|------------|---------------|-----------|-----------------|
D|------------|---------------|-----------|-----------------|
A|----3--2--3-|-5-5-5-5-5-5-5-|---3-2-3-0-|-----------------|
E|-5----------|---------------|-5---------|-3-3-3-3-3-3-3---|


[Verse] x2

G|--------------|-----------|-----------|-------------|
D|--------------|-----------|-----------|-------------|
A|-3-3-0--0--3--|-3-3-0-0-3-|-3-3-0-0-3-|-3-3-0-------|
E|--------------|-----------|-----------|-------5--3--|

[Chorus]

G|------------|---------------|-----------|-----------------|
D|------------|---------------|-----------|-----------------|
A|----3--2--3-|-5-5-5-5-5-5-5-|---3-2-3-0-|-----------------|
E|-5----------|---------------|-5---------|-3-3-3-3-3-3-3---|


[Bridge] x2


G|-----------|-------------|-----------|--------------|
D|-----------|-------------|-----------|--------------|
A|-1-1-1-1-1-|-0-0-0-0-0-0-|-----------|--------------|
E|-----------|-------------|-3-3-3-3-1-|-1-3-3-3-3-1--|

[Bridge End]

G|-----------|-------------|-------------------|------|
D|-----------|-------------|-------------------|------|
A|-1-1-1-1-1-|-0-0-0-0-0-0-|-5-5-5-5-5-5-5-5-5-|-3-2--|
E|-----------|-------------|-------------------|------|


[Verse] x2

G|--------------|-----------|-----------|-------------|
D|--------------|-----------|-----------|-------------|
A|-3-3-0--0--3--|-3-3-0-0-3-|-3-3-0-0-3-|-3-3-0-------|
E|--------------|-----------|-----------|-------5--3--|

[Chorus]

G|------------|---------------|-----------|-----------------|
D|------------|---------------|-----------|-----------------|
A|----3--2--3-|-5-5-5-5-5-5-5-|---3-2-3-0-|-----------------|
E|-5----------|---------------|-5---------|-3-3-3-3-3-3-3---|

[Verse] x2

G|--------------|-----------|-----------|-------------|
D|--------------|-----------|-----------|-------------|
A|-3-3-0--0--3--|-3-3-0-0-3-|-3-3-0-0-3-|-3-3-0-------|
E|--------------|-----------|-----------|-------5--3--|

[Chorus]

G|------------|---------------|-----------|-----------------|
D|------------|---------------|-----------|-----------------|
A|----3--2--3-|-5-5-5-5-5-5-5-|---3-2-3-0-|-----------------|
E|-5----------|---------------|-5---------|-3-3-3-3-3-3-3---|

[Bridge] x2


G|-----------|-------------|-----------|--------------|
D|-----------|-------------|-----------|--------------|
A|-1-1-1-1-1-|-0-0-0-0-0-0-|-----------|--------------|
E|-----------|-------------|-3-3-3-3-1-|-3-3-3-3-3-1--|

[Bridge End]

G|-----------|-------------|-------------------|------|
D|-----------|-------------|-------------------|------|
A|-1-1-1-1-1-|-0-0-0-0-0-0-|-5-5-5-5-5-5-5-5-5-|-3-2--|
E|-----------|-------------|-------------------|------|


[Verse] x2

G|--------------|-----------|-----------|-------------|
D|--------------|-----------|-----------|-------------|
A|-3-3-0--0--3--|-3-3-0-0-3-|-3-3-0-0-3-|-3-3-0-------|
E|--------------|-----------|-----------|-------5--3--|

[Chorus]

G|------------|---------------|-----------|-----------------|
D|------------|---------------|-----------|-----------------|
A|----3--2--3-|-5-5-5-5-5-5-5-|---3-2-3-0-|-----------------|
E|-5----------|---------------|-5---------|-3-3-3-3-3-3-3---|


[Verse] x2

G|--------------|-----------|-----------|-------------|
D|--------------|-----------|-----------|-------------|
A|-3-3-0--0--3--|-3-3-0-0-3-|-3-3-0-0-3-|-3-3-0-------|
E|--------------|-----------|-----------|-------5--3--|

[Chorus] x4

G|------------|---------------|-----------|-----------------|
D|------------|---------------|-----------|-----------------|
A|----3--2--3-|-5-5-5-5-5-5-5-|---3-2-3-0-|-----------------|
E|-5----------|---------------|-5---------|-3-3-3-3-3-3-3---|


[Outro] x4

G|-----------|-------------|-----------|--------------|
D|-----------|-------------|-----------|--------------|
A|-6-6-6-6-6-|-5-5-5-5-5-5-|-4-4-4-4-4-|-3-3-3-3-3-3--|
E|-----------|-------------|-----------|--------------|

[End]

G|---------------------|--------|
D|---------------------|--------|
A|-3-3-3-3-3-3-3-3-3-3-|3-3-3-3-|
E|---------------------|--------|



That's all
Enjoy and Rate
Suggest correction
Give kudos to tab author, rate the tab!
1 2 3 4 5
comments
print report bad tab
guest
You may want to rate the tab now too:
select rating
Wanna post a correction for this tab? Suggest correction