Oops, an error
Loading. Please wait.

Spikey Hair Bass Tab

7 views 1 this week
no commentswrite comment
1 2 3 4 5
3 more votes to show rating
add to favorites
launch autoscroll
font size
0
reset
guitar tuner
Autoscroll
slow
fast
+/-
esc
set tempo
stop
Help us to improve Ultimate-Guitar.com Take our survey!
×
Author
Difficulty
novice
                             VICE SQUAD - SPIKEY HAIR

Tabbed by: Rottney (reconssuck)
E-mail: reconssuck@hotmail.de

Artist: Vice Squad
Song: Spikey Hair
Album: Vice Squad - The Rarities (1999)
Bassist: Mark Hembly


Tuning: Standard (EADG)



[Intro]

G|------------|---------------|--------------|---------------|
D|------------|---------------|--------------|---------------|
A|------------|---------------|--------------|---------------|
E|-3-3-3--5-5-|-0-0-0-0-0-0-0-|-5-5-5--7-7-7-|-5-5-5-5-5-5---|

G|------------|---------------|--------------|---------------|
D|------------|---------------|--------------|---------------|
A|------------|---------------|--------------|---------------|
E|-3-3-3--5-5-|-0-0-0-0-0-0-0-|-3-3-3--5-5---|-0-0-0-0-0-0-0-|


[Verse] x2

G|-------------------------------|---------------------------|
D|-------------------------------|---------------------------|
A|-3-3-3-3-3-3-3-3-3-3-3-3-3-3-3-|---------------------------|
E|-------------------------------|-3-3-3-3-3-3-3-3-3-3-3-3-3-|

G|-------------------------------|----------------------------|
D|-------------------------------|----------------------------|
A|-5-5-5-5-5-5-5-5-5-5-5-5-5-5-5-|----------------------------|
E|-------------------------------|-3-3-3-3-3-3-3-3-3-3-3-3-3--|


[Chorus]

G|------------|---------------|--------------|---------------|
D|------------|---------------|--------------|---------------|
A|------------|---------------|--------------|---------------|
E|-3-3-3--5-5-|-0-0-0-0-0-0-0-|-3-3-3--5-5---|-0-0-0-0-0-0-0-|

G|--------------|---------------|------------|---------------|------------|---------------|
D|--------------|---------------|------------|---------------|------------|---------------|
A|--------------|---------------|------------|---------------|------------|---------------|
E|-5-5-5--7-7-7-|-5-5-5-5-5-5-5-|-3-3-3--5-5-|-0-0-0-0-0-0-0-|-3-3-3--5-5-|-0-0-0-0-0-0-0-|

[Verse] x2

G|-------------------------------|---------------------------|
D|-------------------------------|---------------------------|
A|-3-3-3-3-3-3-3-3-3-3-3-3-3-3-3-|---------------------------|
E|-------------------------------|-3-3-3-3-3-3-3-3-3-3-3-3-3-|

G|-------------------------------|----------------------------|
D|-------------------------------|----------------------------|
A|-5-5-5-5-5-5-5-5-5-5-5-5-5-5-5-|----------------------------|
E|-------------------------------|-3-3-3-3-3-3-3-3-3-3-3-3-3--|

[Chorus]

G|------------|---------------|--------------|---------------|
D|------------|---------------|--------------|---------------|
A|------------|---------------|--------------|---------------|
E|-3-3-3--5-5-|-0-0-0-0-0-0-0-|-3-3-3--5-5---|-0-0-0-0-0-0-0-|

G|--------------|---------------|------------|---------------|------------|---------------|
D|--------------|---------------|------------|---------------|------------|---------------|
A|--------------|---------------|------------|---------------|------------|---------------|
E|-5-5-5--7-7-7-|-5-5-5-5-5-5-5-|-3-3-3--5-5-|-0-0-0-0-0-0-0-|-3-3-3--5-5-|-0-0-0-0-0-0-0-|


[Verse during solo] x2

G|-------------------------------|---------------------------|
D|-------------------------------|---------------------------|
A|-3-3-3-3-3-3-3-3-3-3-3-3-3-3-3-|---------------------------|
E|-------------------------------|-3-3-3-3-3-3-3-3-3-3-3-3-3-|

G|-------------------------------|---------------------------|
D|-------------------------------|---------------------------|
A|-5-5-5-5-5-5-5-5-5-5-5-5-5-5-5-|-------3-3-3---------------|
E|-------------------------------|-3-3-3-------3-3-3-3-3-3-3-|


[Chorus]

G|------------|---------------|--------------|---------------|
D|------------|---------------|--------------|---------------|
A|------------|---------------|--------------|---------------|
E|-3-3-3--5-5-|-0-0-0-0-0-0-0-|-3-3-3--5-5---|-0-0-0-0-0-0-0-|

G|--------------|---------------|------------|---------------|------------|---------------|
D|--------------|---------------|------------|---------------|------------|---------------|
A|--------------|---------------|------------|---------------|------------|---------------|
E|-5-5-5--7-7-7-|-5-5-5-5-5-5-5-|-3-3-3--5-5-|-0-0-0-0-0-0-0-|-3-3-3--5-5-|-0-0-0-0-0-0-0-|

[Verse] x2

G|-------------------------------|---------------------------------|
D|-------------------------------|---------------------------------|
A|-3-3-3-3-3-3-3-3-3-3-3-3-3-3-3-|---------------------------------|
E|-------------------------------|-3-3-3-3-3-3-3-3-3-3-3-3-3-3-3-3-|

G|-------------------------------|---------------------------------|
D|-------------------------------|---------------------------------|
A|-5-5-5-5-5-5-5-5-5-5-5-5-5-5-5-|---------------------------------|
E|-------------------------------|-3-3-3-3-3-3-3-3-3-3-3-3-3-3-3-3-|

[Last Chorus]

G|------------|---------------|--------------|---------------|
D|------------|---------------|--------------|---------------|
A|------------|---------------|--------------|---------------|
E|-3-3-3--5-5-|-0-0-0-0-0-0-0-|-3-3-3--5-5---|-0-0-0-0-0-0-0-|

G|--------------|---------------|------------|---------------|
D|--------------|---------------|------------|---------------|
A|--------------|---------------|------------|---------------|
E|-5-5-5--7-7-7-|-5-5-5-5-5-5-5-|-3-3-3--5-5-|-0--0--0--0--0-|



That's all.
Enjoy and Rate.
Suggest correction
Give kudos to tab author, rate the tab!
1 2 3 4 5
comments
print report bad tab
guest
You may want to rate the tab now too:
select rating
Wanna post a correction for this tab? Suggest correction