Oops, an error
Loading. Please wait.

Spikey Hair Tab

version 1
version 1

Whole song

4 views 1 this week
no commentswrite comment
1 2 3 4 5
3 more votes to show rating
add to favorites
launch autoscroll
font size
0
reset
how to read this tab
guitar tuner
Autoscroll
slow
fast
+/-
esc
set tempo
stop
Help us to improve Ultimate-Guitar.com Take our survey!
×
Author
Difficulty
novice
VICE SQUAD - SPIKEY HAIR

Tabbed by: Rottney (reconssuck)
E-mail: reconssuck@hotmail.de

Artist: Vice Squad
Song: Spikey Hair
Album: Vice Squad - The Rarities (1999)
Guitarist: Dave Bateman

Tuning: Standard (EADGBe)


[Intro]

e|-------------|----------------|---------------|---------------|
B|-------------|----------------|---------------|---------------|
G|-------------|----------------|---------------|---------------|
D|-------------|----------------|---------------|---------------|
A|--5-5-5--7-7-|-2-2-2-2-2-2-2--|-7-7-7--9-9-9--|-7-7-7-7-7-7---|
E|--3-3-3--5-5-|-0-0-0-0-0-0-0--|-5-5-5--7-7-7--|-5-5-5-5-5-5---|

e|-------------|----------------|--------------|---------------|
B|-------------|----------------|--------------|---------------|
G|-------------|----------------|--------------|---------------|
D|-------------|----------------|--------------|---------------|
A|--5-5-5--7-7-|-2-2-2-2-2-2-2--|-5-5-5--7-7---|-2-2-2-2-2-2-2-|
E|--3-3-3--5-5-|-0-0-0-0-0-0-0--|-3-3-3--5-5---|-0-0-0-0-0-0-0-|

[Verse] x2

e|-------------------------------|---------------------------|
B|-------------------------------|---------------------------|
G|-------------------------------|---------------------------|
D|-5-5-5-5-5-5-5-5-5-5-5-5-5-5-5-|---------------------------|
A|-3-3-3-3-3-3-3-3-3-3-3-3-3-3-3-|-5-5-5-5-5-5-5-5-5-5-5-5-5-|
E|-------------------------------|-3-3-3-3-3-3-3-3-3-3-3-3-3-|


e|-------------------------------|----------------------------|
B|-------------------------------|----------------------------|
G|-------------------------------|----------------------------|
D|-7-7-7-7-7-7-7-7-7-7-7-7-7-7-7-|----------------------------|
A|-5-5-5-5-5-5-5-5-5-5-5-5-5-5-5-|-5-5-5-5-5-5-5-5-5-5-5-5-5--|
E|-------------------------------|-3-3-3-3-3-3-3-3-3-3-3-3-3--|


[Chorus]

e|------------|---------------|--------------|---------------|
B|------------|---------------|--------------|---------------|
G|------------|---------------|--------------|---------------|
D|------------|---------------|--------------|---------------|
A|-5-5-5--7-7-|-2-2-2-2-2-2-2-|-5-5-5--7-7---|-2-2-2-2-2-2-2-|
E|-3-3-3--5-5-|-0-0-0-0-0-0-0-|-3-3-3--5-5---|-0-0-0-0-0-0-0-|


e|--------------|---------------|------------|---------------|------------|---------------|
B|--------------|---------------|------------|---------------|------------|---------------|
G|--------------|---------------|------------|---------------|------------|---------------|
D|--------------|---------------|------------|---------------|------------|---------------|
A|-7-7-7--9-9-9-|-7-7-7-7-7-7-7-|-5-5-5--7-7-|-2-2-2-2-2-2-2-|-5-5-5--7-7-|-2-2-2-2-2-2-2-|
E|-5-5-5--7-7-7-|-5-5-5-5-5-5-5-|-3-3-3--5-5-|-0-0-0-0-0-0-0-|-3-3-3--5-5-|-0-0-0-0-0-0-0-|

[Verse] x2

e|-------------------------------|---------------------------|
B|-------------------------------|---------------------------|
G|-------------------------------|---------------------------|
D|-5-5-5-5-5-5-5-5-5-5-5-5-5-5-5-|---------------------------|
A|-3-3-3-3-3-3-3-3-3-3-3-3-3-3-3-|-5-5-5-5-5-5-5-5-5-5-5-5-5-|
E|-------------------------------|-3-3-3-3-3-3-3-3-3-3-3-3-3-|


e|-------------------------------|----------------------------|
B|-------------------------------|----------------------------|
G|-------------------------------|----------------------------|
D|-7-7-7-7-7-7-7-7-7-7-7-7-7-7-7-|----------------------------|
A|-5-5-5-5-5-5-5-5-5-5-5-5-5-5-5-|-5-5-5-5-5-5-5-5-5-5-5-5-5--|
E|-------------------------------|-3-3-3-3-3-3-3-3-3-3-3-3-3--|


[Chorus]

e|------------|---------------|--------------|---------------|
B|------------|---------------|--------------|---------------|
G|------------|---------------|--------------|---------------|
D|------------|---------------|--------------|---------------|
A|-5-5-5--7-7-|-2-2-2-2-2-2-2-|-5-5-5--7-7---|-2-2-2-2-2-2-2-|
E|-3-3-3--5-5-|-0-0-0-0-0-0-0-|-3-3-3--5-5---|-0-0-0-0-0-0-0-|


e|--------------|---------------|------------|---------------|------------|---------------|
B|--------------|---------------|------------|---------------|------------|---------------|
G|--------------|---------------|------------|---------------|------------|---------------|
D|--------------|---------------|------------|---------------|------------|---------------|
A|-7-7-7--9-9-9-|-7-7-7-7-7-7-7-|-5-5-5--7-7-|-2-2-2-2-2-2-2-|-5-5-5--7-7-|-2-2-2-2-2-2-2-|
E|-5-5-5--7-7-7-|-5-5-5-5-5-5-5-|-3-3-3--5-5-|-0-0-0-0-0-0-0-|-3-3-3--5-5-|-0-0-0-0-0-0-0-|


[Verse during solo] x2

e|-------------------------------|---------------------------|
B|-------------------------------|---------------------------|
G|-------------------------------|---------------------------|
D|-5-5-5-5-5-5-5-5-5-5-5-5-5-5-5-|---------------------------|
A|-3-3-3-3-3-3-3-3-3-3-3-3-3-3-3-|-5-5-5-5-5-5-5-5-5-5-5-5-5-|
E|-------------------------------|-3-3-3-3-3-3-3-3-3-3-3-3-3-|


e|-------------------------------|----------------------------|
B|-------------------------------|----------------------------|
G|-------------------------------|----------------------------|
D|-7-7-7-7-7-7-7-7-7-7-7-7-7-7-7-|-------5-5-5----------------|
A|-5-5-5-5-5-5-5-5-5-5-5-5-5-5-5-|-5-5-5-3-3-3-5-5-5-5-5-5-5--|
E|-------------------------------|-3-3-3-------3-3-3-3-3-3-3--|


[Chorus]

e|------------|---------------|--------------|---------------|
B|------------|---------------|--------------|---------------|
G|------------|---------------|--------------|---------------|
D|------------|---------------|--------------|---------------|
A|-5-5-5--7-7-|-2-2-2-2-2-2-2-|-5-5-5--7-7---|-2-2-2-2-2-2-2-|
E|-3-3-3--5-5-|-0-0-0-0-0-0-0-|-3-3-3--5-5---|-0-0-0-0-0-0-0-|

e|--------------|---------------|------------|---------------|------------|---------------|
B|--------------|---------------|------------|---------------|------------|---------------|
G|--------------|---------------|------------|---------------|------------|---------------|
D|--------------|---------------|------------|---------------|------------|---------------|
A|-7-7-7--9-9-9-|-7-7-7-7-7-7-7-|-5-5-5--7-7-|-2-2-2-2-2-2-2-|-5-5-5--7-7-|-2-2-2-2-2-2-2-|
E|-5-5-5--7-7-7-|-5-5-5-5-5-5-5-|-3-3-3--5-5-|-0-0-0-0-0-0-0-|-3-3-3--5-5-|-0-0-0-0-0-0-0-|


[Verse] x2

e|-------------------------------|---------------------------|
B|-------------------------------|---------------------------|
G|-------------------------------|---------------------------|
D|-5-5-5-5-5-5-5-5-5-5-5-5-5-5-5-|---------------------------|
A|-3-3-3-3-3-3-3-3-3-3-3-3-3-3-3-|-5-5-5-5-5-5-5-5-5-5-5-5-5-|
E|-------------------------------|-3-3-3-3-3-3-3-3-3-3-3-3-3-|


e|-------------------------------|----------------------------|
B|-------------------------------|----------------------------|
G|-------------------------------|----------------------------|
D|-7-7-7-7-7-7-7-7-7-7-7-7-7-7-7-|----------------------------|
A|-5-5-5-5-5-5-5-5-5-5-5-5-5-5-5-|-5-5-5-5-5-5-5-5-5-5-5-5-5--|
E|-------------------------------|-3-3-3-3-3-3-3-3-3-3-3-3-3--|


[Last Chorus]

e|------------|---------------|--------------|---------------|
B|------------|---------------|--------------|---------------|
G|------------|---------------|--------------|---------------|
D|------------|---------------|--------------|---------------|
A|-5-5-5--7-7-|-2-2-2-2-2-2-2-|-5-5-5--7-7---|-2-2-2-2-2-2-2-|
E|-3-3-3--5-5-|-0-0-0-0-0-0-0-|-3-3-3--5-5---|-0-0-0-0-0-0-0-|

e|--------------|---------------|------------|---------------|
B|--------------|---------------|------------|---------------|
G|--------------|---------------|------------|---------------|
D|--------------|---------------|------------|---------------|
A|-7-7-7--9-9-9-|-7-7-7-7-7-7-7-|-5-5-5--7-7-|-2-------------|
E|-5-5-5--7-7-7-|-5-5-5-5-5-5-5-|-3-3-3--5-5-|-0-------------|



That's All.
Enjoy and Rate.
Suggest correction
Give kudos to tab author, rate the tab!
1 2 3 4 5
comments
print report bad tab
guest
You may want to rate the tab now too:
select rating
Wanna post a correction for this tab? Suggest correction