Oops, an error
Loading. Please wait.

Stand Strong Stand Proud Bass Tab

10 views 1 this week
no commentswrite comment
1 2 3 4 5
3 more votes to show rating
add to favorites
launch autoscroll
font size
0
reset
guitar tuner
Autoscroll
slow
fast
+/-
esc
set tempo
stop
Help us to improve Ultimate-Guitar.com Take our survey!
×
Author
Difficulty
Tuning
novice
D# G# C# F# A# D#
About this tab version
This Tab is based on the version that appears on the Album, the popular live version with the added interview during the bridge is played in standard tuning. Was this info helpful? Yes No
                             VICE SQUAD - STAND STRONG STAND PROUD

Tabbed by: Rottney (reconssuck)
E-mail: reconssuck@hotmail.de

Artist: Vice Squad
Song: Stand Strong Stand Proud
Album: Stand Strong Stand Proud (1982)
Bassist: Mark Hambly

Tuning: Half-Step Down



[Intro] x2

F#|----------------|----------------|----------------------|
C#|----------------|----------------|----------------------|
G#|----------------|----------------|----------------------|
D#|-7-7-7--6-6-6-6-|-4-4-4--2-2-2-2-|-0-0-0-0--4-2-2-2-2-2-|


[Verse] x2

F#|-----------------------|------------|-------------|
C#|-----------------------|------------|-------------|
G#|-----------------------|------------|-------------|
D#|-7-7-7-7-7-5-7-7-7-7-7-|-5-5-5--3-3-|-0-0-0-0-0-0-|


[Pre Chorus] x2

F#|---------------|---------------|-------------|-------------|
C#|---------------|---------------|-------------|-------------|
G#|-3-3-3-3-3-3-3-|---------------|-5-5-5-5-5-5-|-7-7-7-7-7-7-|
D#|---------------|-3-3-3-3-3-3-3-|-------------|-------------|


[Chorus] x4

F#|--------|------------------|---------|-------------|
C#|--------|------------------|---------|-------------|
G#|--------|-1--3-3-3-3-3-3-3-|-1-1-3-1-|-0-0-0-0-0-0-|
D#|-3---3--|------------------|---------|-------------|

[Chorus End]

F#|-----------------|---------|
C#|-----------------|---------|
G#|-----------------|---------|
D#|-3-3-3-3-3-3-3-3-|-3-5-6-7-|

[Verse] x2

F#|-----------------------|------------|-------------|
C#|-----------------------|------------|-------------|
G#|-----------------------|------------|-------------|
D#|-7-7-7-7-7-5-7-7-7-7-7-|-5-5-5--3-3-|-0-0-0-0-0-0-|


[Pre Chorus] x2

F#|---------------|---------------|-------------|-------------|
C#|---------------|---------------|-------------|-------------|
G#|-3-3-3-3-3-3-3-|---------------|-5-5-5-5-5-5-|-7-7-7-7-7-7-|
D#|---------------|-3-3-3-3-3-3-3-|-------------|-------------|


[Chorus] x4

F#|--------|------------------|---------|-------------|
C#|--------|------------------|---------|-------------|
G#|--------|-1--3-3-3-3-3-3-3-|-1-1-3-1-|-0-0-0-0-0-0-|
D#|-3---3--|------------------|---------|-------------|

[Chorus End]

F#|-----------------|---------|
C#|-----------------|---------|
G#|-----------------|---------|
D#|-3-3-3-3-3-3-3-3-|-3-5-6-7-|


[Verse] x2

F#|-----------------------|------------|-------------|
C#|-----------------------|------------|-------------|
G#|-----------------------|------------|-------------|
D#|-7-7-7-7-7-5-7-7-7-7-7-|-5-5-5--3-3-|-0-0-0-0-0-0-|

[Pre Chorus] x2

F#|---------------|---------------|-------------|-------------|
C#|---------------|---------------|-------------|-------------|
G#|-3-3-3-3-3-3-3-|---------------|-5-5-5-5-5-5-|-7-7-7-7-7-7-|
D#|---------------|-3-3-3-3-3-3-3-|-------------|-------------|

[Bridge] x4


F#|-------------|---------------|-------------|---------------|
C#|-------------|---------------|-------------|---------------|
G#|-------------|-3-3-3-3---3-3-|-1--1--3-3-1-|-0-0-0-0--0--0-|
D#|-3--3--3-3-3-|---------------|-------------|---------------|

[Chorus End]

F#|-----------------|---------|
C#|-----------------|---------|
G#|-----------------|---------|
D#|-3-3-3-3-3-3-3-3-|-3-5-6-7-|


[Verse] x2

F#|-----------------------|------------|-------------|
C#|-----------------------|------------|-------------|
G#|-----------------------|------------|-------------|
D#|-7-7-7-7-7-5-7-7-7-7-7-|-5-5-5--3-3-|-0-0-0-0-0-0-|


[Pre Chorus] x2

F#|---------------|---------------|-------------|-------------|
C#|---------------|---------------|-------------|-------------|
G#|-3-3-3-3-3-3-3-|---------------|-5-5-5-5-5-5-|-7-7-7-7-7-7-|
D#|---------------|-3-3-3-3-3-3-3-|-------------|-------------|


[Chorus] x4

F#|--------|------------------|---------|-------------|
C#|--------|------------------|---------|-------------|
G#|--------|-1--3-3-3-3-3-3-3-|-1-1-3-1-|-0-0-0-0-0-0-|
D#|-3---3--|------------------|---------|-------------|

[Chorus End]

F#|-----------------|---------|
C#|-----------------|---------|
G#|-----------------|---------|
D#|-3-3-3-3-3-3-3-3-|-3-5-6-7-|

[Outro] x2

F#|----------------|----------------|----------------------|
C#|----------------|----------------|----------------------|
G#|----------------|----------------|----------------------|
D#|-7-7-7--6-6-6-6-|-4-4-4--2-2-2-2-|-0-0-0-0--4-2-2-2-2-2-|


That's all.
Enjoy and Rate
Suggest correction
Give kudos to tab author, rate the tab!
1 2 3 4 5
comments
print report bad tab
guest
You may want to rate the tab now too:
select rating
Wanna post a correction for this tab? Suggest correction