Oops, an error
Loading. Please wait.

Stuck In Reverse Bass Tab

4 views 1 this week
no commentswrite comment
1 2 3 4 5
3 more votes to show rating
add to favorites
launch autoscroll
font size
0
reset
guitar tuner
Autoscroll
slow
fast
+/-
esc
set tempo
stop
Help us to improve Ultimate-Guitar.com Take our survey!
×
Author
Difficulty
novice
                             VICE SQUAD - STUCK IN REVERSE

Tabbed by: Rottney (reconssuck)
E-mail: reconssuck@hotmail.de

Artist: Vice Squad
Song: Stuck In Reverse
Album: Punk Rock Radio



Tuning: Standard (EADG)


[Intro] x4

G|---------|---------|---------|---------|
D|---------|---------|---------|---------|
A|---------|---------|---------|---------|
E|-5-5-5-5-|-3-3-3-3-|-1-1-1-3-|-5-5-5-5-|

[Verse] x4

G|-----------------|
D|-----------------|
A|-5-5-5-5-5-5-5-3-|
E|-----------------|

[Verse Variation] x2

G|---------|---------|---------|---------|
D|---------|---------|---------|---------|
A|---------|---------|---------|---------|
E|-5-5-5-5-|-3-3-3-3-|-1-1-1-3-|-5-5-5-5-|

[Verse] x4

G|-----------------|
D|-----------------|
A|-5-5-5-5-5-5-5-3-|
E|-----------------|

[Verse Variation] x2

G|---------|---------|---------|---------|
D|---------|---------|---------|---------|
A|---------|---------|---------|---------|
E|-5-5-5-5-|-3-3-3-3-|-1-1-1-3-|-5-5-5-5-|


[Chorus]

G|-----------------|-----------------|-----------------|------------------------|
D|-----------------|-----------------|-----------------|------------------------|
A|-----------------|-----------------|-----------------|-0--2--5--3-2-0---------|
E|-1-1-1-1-1-1-1-1-|-3-3-3-3-3-3-3-3-|-5-5-5-5-5-5-5-5-|-----------------3------|



G|-----------------|-----------------|-----------|---------------------------|
D|-----------------|-----------------|-----------|---------------------------|
A|-----------------|-----------------|-----------|-0-0-7-7-5-5-3-3-2-2-------|
E|-1-1-1-1-1-1-1-1-|-3-3-3-3-3-3-3-3-|-0-0-0-0-0-|---------------------------|

[Chorus End] 

G|---------|---------|---------|----|
D|---------|---------|---------|----|
A|---------|---------|---------|----|
E|-5-5-5-5-|-3-3-3-3-|-1-1-1-3-|-5--|

[Chorus End 2]

G|---------|---------|---------|-----------|
D|---------|---------|---------|-----------|
A|---------|---------|---------|----2--4-5-|
E|-5-5-5-5-|-3-3-3-3-|-1-1-1-3-|-5---------|

[Verse] x4

G|-----------------|
D|-----------------|
A|-5-5-5-5-5-5-5-3-|
E|-----------------|

[Verse Variation] x2

G|---------|---------|---------|---------|
D|---------|---------|---------|---------|
A|---------|---------|---------|---------|
E|-5-5-5-5-|-3-3-3-3-|-1-1-1-3-|-5-5-5-5-|

[Verse] x4

G|-----------------|
D|-----------------|
A|-5-5-5-5-5-5-5-3-|
E|-----------------|

[Verse Variation] x2

G|---------|---------|---------|---------|
D|---------|---------|---------|---------|
A|---------|---------|---------|---------|
E|-5-5-5-5-|-3-3-3-3-|-1-1-1-3-|-5-5-5-5-|

[Chorus]

G|-----------------|-----------------|-----------------|------------------------|
D|-----------------|-----------------|-----------------|------------------------|
A|-----------------|-----------------|-----------------|-0--2--5--3-2-0---------|
E|-1-1-1-1-1-1-1-1-|-3-3-3-3-3-3-3-3-|-5-5-5-5-5-5-5-5-|-----------------3------|



G|-----------------|-----------------|-----------|---------------------------|
D|-----------------|-----------------|-----------|---------------------------|
A|-----------------|-----------------|-----------|-0-0-7-7-5-5-3-3-2-2-------|
E|-1-1-1-1-1-1-1-1-|-3-3-3-3-3-3-3-3-|-0-0-0-0-0-|---------------------------|

[Chorus End] 

G|---------|---------|---------|----|
D|---------|---------|---------|----|
A|---------|---------|---------|----|
E|-5-5-5-5-|-3-3-3-3-|-1-1-1-3-|-5--|

[Chorus End 2]

G|---------|---------|---------|-----------|
D|---------|---------|---------|-----------|
A|---------|---------|---------|----2--4-5-|
E|-5-5-5-5-|-3-3-3-3-|-1-1-1-3-|-5---------|

[Verse] x4

G|-----------------|
D|-----------------|
A|-5-5-5-5-5-5-5-3-|
E|-----------------|

[Verse Variation] x2

G|---------|---------|---------|---------|
D|---------|---------|---------|---------|
A|---------|---------|---------|---------|
E|-5-5-5-5-|-3-3-3-3-|-1-1-1-3-|-5-5-5-5-|

[Verse] x4

G|-----------------|
D|-----------------|
A|-5-5-5-5-5-5-5-3-|
E|-----------------|

[Verse Variation] x2

G|---------|---------|---------|---------|
D|---------|---------|---------|---------|
A|---------|---------|---------|---------|
E|-5-5-5-5-|-3-3-3-3-|-1-1-1-3-|-5-5-5-5-|

[Chorus with Fill]

G|-----------------|-----------------|-----------------|-------------------|
D|---------3-3-----|---------5-5-----|-----------------|-------------------|
A|-----3-3-----3-3-|-----5-5-----5-5-|-----------------|-0--2--5--3-2-0----|
E|-1-1-------------|-3-3-------------|-5-5-5-5-5-5-5-5-|-----------------3-|


G|-----------------|-----------------|-----------|---------------------------|
D|---------3-3-----|---------5-5-----|-----------|---------------------------|
A|-----3-3-----3-3-|-----5-5-----5-5-|-----------|-0-0-7-7-5-5-3-3-2-2-------|
E|-1-1-------------|-3-3-------------|-0-0-0-0-0-|---------------------------|


[Chorus End] x2

G|---------|---------|---------|----|
D|---------|---------|---------|----|
A|---------|---------|---------|----|
E|-5-5-5-5-|-3-3-3-3-|-1-1-1-3-|-5--|


[Outro] x4

G|---------|--------|
D|---------|--------|
A|---------|--------|
E|-1-1-1-3-|-5------|






That's all
Enjoy and Rate
Suggest correction
Give kudos to tab author, rate the tab!
1 2 3 4 5
comments
print report bad tab
guest
You may want to rate the tab now too:
select rating
Wanna post a correction for this tab? Suggest correction