Oops, an error
Loading. Please wait.

Summer Fashion Bass Tab

1 view 1 this week
no commentswrite comment
1 2 3 4 5
3 more votes to show rating
add to favorites
launch autoscroll
font size
0
reset
guitar tuner
Autoscroll
slow
fast
+/-
esc
set tempo
stop
Help us to improve Ultimate-Guitar.com Take our survey!
×
Author
Difficulty
novice
                             VICE SQUAD - SUMMER FASHION

Tabbed by: Rottney (reconssuck)
E-mail: reconssuck@hotmail.de

Artist: Vice Squad
Song: Summer Fashion
Album: No Cause for Concern (1981)
Bassist: Mark Hambly


Tuning: Standard (EADG)



[Intro Riff 1] x2

G|---------|-----------|
D|---------|-----------|
A|---------|-----------|
E|--6------|--4---3----|

[Intro Riff 2] 

G|---------|---------|---------|---------|
D|---------|---------|---------|---------|
A|---------|---------|---------|---------|
E|--6------|--6------|--6------|--6------|


[Verse] x4

G|----------------|---------------|
D|----------------|---------------|
A|----------------|---------------|
E|--6-6-6-6-6-6-6-|-8-8-8-8-8-8-8-|

[Pre-Chorus] x7

G|-----------------------------|
D|-----------------------------|
A|-----------------------------|
E|-7-7-7-7-7-7-7--6--6--5-5-5--|

[End of Pre-Chorus]

G|-------------------------------|
D|-------------------------------|
A|-------------------------------|
E|-4-4-4-4-4-4-4-4-4-4-4-4-4-4-4-|


[Chorus] x3

G|---------------|-------------|
D|---------------|-------------|
A|---------------|-------------|
E|-6-6-6-6-6-6-6-|-4-4--3-3-3--|

[Verse] x4

G|----------------|---------------|
D|----------------|---------------|
A|----------------|---------------|
E|--6-6-6-6-6-6-6-|-8-8-8-8-8-8-8-|

[Pre-Chorus] x7

G|-----------------------------|
D|-----------------------------|
A|-----------------------------|
E|-7-7-7-7-7-7-7--6--6--5-5-5--|


[End of Pre-Chorus]

G|-------------------------------|
D|-------------------------------|
A|-------------------------------|
E|-4-4-4-4-4-4-4-4-4-4-4-4-4-4-4-|


[Chorus] x3

G|---------------|-------------|
D|---------------|-------------|
A|---------------|-------------|
E|-6-6-6-6-6-6-6-|-4-4--3-3-3--|

[Verse] x4

G|----------------|---------------|
D|----------------|---------------|
A|----------------|---------------|
E|--6-6-6-6-6-6-6-|-8-8-8-8-8-8-8-|

[Bridge]


G|--------|--------|--------|-------------------|
D|--------|--------|--------|-------------------|
A|--------|--------|--------|-------------------|
E|-1------|-1------|-1------|-1--1---1--3--4--5-|

[Pre-Chorus] x7

G|-----------------------------|
D|-----------------------------|
A|-----------------------------|
E|-7-7-7-7-7-7-7--6--6--5-5-5--|

[End of Pre-Chorus]

G|-------------------------------|
D|-------------------------------|
A|-------------------------------|
E|-4-4-4-4-4-4-4-4-4-4-4-4-4-4-4-|

[Chorus] x3

G|---------------|-------------|
D|---------------|-------------|
A|---------------|-------------|
E|-6-6-6-6-6-6-6-|-4-4--3-3-3--|

[Verse] x4

G|----------------|---------------|
D|----------------|---------------|
A|----------------|---------------|
E|--6-6-6-6-6-6-6-|-8-8-8-8-8-8-8-|


[Outro]

G|--------|--------|--------|----------------|
D|--------|--------|--------|----------------|
A|--------|--------|--------|----------------|
E|-8------|-8------|-8------|-8--8---8--8--8-|




That's all.
Enjoy and Rate.
Suggest correction
Give kudos to tab author, rate the tab!
1 2 3 4 5
comments
print report bad tab
guest
You may want to rate the tab now too:
select rating
Wanna post a correction for this tab? Suggest correction