Oops, an error
Loading. Please wait.

Young Blood Bass Tab

7 views 1 this week
no commentswrite comment
1 2 3 4 5
3 more votes to show rating
add to favorites
launch autoscroll
font size
0
reset
guitar tuner
Autoscroll
slow
fast
+/-
esc
set tempo
stop
Help us to improve Ultimate-Guitar.com Take our survey!
×
Author
Difficulty
novice
                             VICE SQUAD - YOUNG BLOOD

Tabbed by: Rottney (reconssuck)
E-mail: reconssuck@hotmail.de

Artist: Vice Squad
Song: Young Blood
Album: No Cause for Concern (1981)
Bassist: Mark Hambly

Tuning: Standard (EADG)

[Main Riff] x4

G|---------------|---------------|------------|---------------|
D|---------------|---------------|------------|---------------|
A|---------------|---------------|------------|---------------|
E|-6-6-6-6-6-6-6-|-5-5-5-5-5-5-5-|-0--2---3-2-|-0-0--2---3-2--|

[Main Riff Ending]

G|--------------|
D|--------------|
A|--------------|
E|-0-0--2--3-2--|

[Chorus] x3

G|----------|----------|-------|----------------|--------------|
D|----------|----------|-------|----------------|--------------|
A|----------|----------|-------|-5-5-5-5-5-5-5--|-6-6---1-1-1--|
E|-3--3--3--|-3-3-3-3--|-3--3--|----------------|--------------|

[Chorus End]


G|----------|----------|-------|
D|----------|----------|-------|
A|----------|----------|-------|
E|-3--3--3--|-3-3-3-3--|-3--3--|

[Main Riff] x4

G|---------------|---------------|------------|---------------|
D|---------------|---------------|------------|---------------|
A|---------------|---------------|------------|---------------|
E|-6-6-6-6-6-6-6-|-5-5-5-5-5-5-5-|-0--2---3-2-|-0-0--2---3-2--|

[Main Riff Ending]

G|--------------|
D|--------------|
A|--------------|
E|-0-0--2--3-2--|

[Chorus] x3

G|----------|----------|-------|----------------|--------------|
D|----------|----------|-------|----------------|--------------|
A|----------|----------|-------|-5-5-5-5-5-5-5--|-6-6---1-1-1--|
E|-3--3--3--|-3-3-3-3--|-3--3--|----------------|--------------|

[Chorus End]


G|----------|----------|-------|
D|----------|----------|-------|
A|----------|----------|-------|
E|-3--3--3--|-3-3-3-3--|-3--3--|

[Bridge] x4

G|---------------------------------|--------------------------------|
D|---------------------------------|--------------------------------|
A|---------------------------------|-5-5-5-5-5-5-5-5-5-5-5-5-5-5-5--|
E|-3-3-3-3-3-3-3-3-3-3-3-3-3-3-3-3-|--------------------------------|


[Main Riff] x4

G|---------------|---------------|------------|---------------|
D|---------------|---------------|------------|---------------|
A|---------------|---------------|------------|---------------|
E|-6-6-6-6-6-6-6-|-5-5-5-5-5-5-5-|-0--2---3-2-|-0-0--2---3-2--|

[Main Riff Ending]

G|--------------|
D|--------------|
A|--------------|
E|-0-0--2--3-2--|

[Chorus] x3

G|----------|----------|-------|----------------|--------------|
D|----------|----------|-------|----------------|--------------|
A|----------|----------|-------|-5-5-5-5-5-5-5--|-6-6---1-1-1--|
E|-3--3--3--|-3-3-3-3--|-3--3--|----------------|--------------|

[Chorus End]


G|----------|----------|-------|
D|----------|----------|-------|
A|----------|----------|-------|
E|-3--3--3--|-3-3-3-3--|-3--3--|






That's all.
Enjoy and Rate.
Suggest correction
Give kudos to tab author, rate the tab!
1 2 3 4 5
comments
print report bad tab
guest
You may want to rate the tab now too:
select rating
Wanna post a correction for this tab? Suggest correction