Oops, an error
Loading. Please wait.

Young Blood Tab

1 view 1 this week
no commentswrite comment
1 2 3 4 5
3 more votes to show rating
add to favorites
launch autoscroll
font size
0
reset
how to read this tab
guitar tuner
Autoscroll
slow
fast
+/-
esc
set tempo
stop
Help us to improve Ultimate-Guitar.com Take our survey!
×
Author
Difficulty
novice
                             VICE SQUAD - YOUNG BLOOD

Tabbed by: Rottney (reconssuck)
E-mail: reconssuck@hotmail.de

Artist: Vice Squad
Song: Young Blood
Album: No Cause for Concern (1981)
Guitarist: Dave Bateman


[Main Riff] x4

e|---------------|---------------|------------|---------------|
B|---------------|---------------|------------|---------------|
G|---------------|---------------|------------|---------------|
D|---------------|---------------|------------|---------------|
A|-8-8-8-8-8-8-8-|-7-7-7-7-7-7-7-|-2--4---5-4-|-2-2--4---5-4--|
E|-6-6-6-6-6-6-6-|-5-5-5-5-5-5-5-|-0--2---3-2-|-0-0--2---3-2--|

[Main Riff Ending]

e|--------------|
B|--------------|
G|--------------|
D|--------------|
A|-2-2--4--5-4--|
E|-0-0--2--3-2--|


[Chorus] x3

e|----------|----------|-------|----------------|--------------|
B|----------|----------|-------|----------------|--------------|
G|----------|----------|-------|----------------|--------------|
D|----------|----------|-------|-7-7-7-7-7-7-7--|-8-8---3-3-3--|
A|-5--5--5--|-5-5-5-5--|-5--5--|-5-5-5-5-5-5-5--|-6-6---1-1-1--|
E|-3--3--3--|-3-3-3-3--|-3--3--|----------------|--------------|

[Chorus End]

e|----------|----------|-------|
B|----------|----------|-------|
G|----------|----------|-------|
D|----------|----------|-------|
A|-5--5--5--|-5-5-5-5--|-5--5--|
E|-3--3--3--|-3-3-3-3--|-3--3--|


[Main Riff] x4

e|---------------|---------------|------------|---------------|
B|---------------|---------------|------------|---------------|
G|---------------|---------------|------------|---------------|
D|---------------|---------------|------------|---------------|
A|-8-8-8-8-8-8-8-|-7-7-7-7-7-7-7-|-2--4---5-4-|-2-2--4---5-4--|
E|-6-6-6-6-6-6-6-|-5-5-5-5-5-5-5-|-0--2---3-2-|-0-0--2---3-2--|

[Main Riff Ending]

e|--------------|
B|--------------|
G|--------------|
D|--------------|
A|-2-2--4--5-4--|
E|-0-0--2--3-2--|

[Chorus] x3

e|----------|----------|-------|----------------|--------------|
B|----------|----------|-------|----------------|--------------|
G|----------|----------|-------|----------------|--------------|
D|----------|----------|-------|-7-7-7-7-7-7-7--|-8-8---3-3-3--|
A|-5--5--5--|-5-5-5-5--|-5--5--|-5-5-5-5-5-5-5--|-6-6---1-1-1--|
E|-3--3--3--|-3-3-3-3--|-3--3--|----------------|--------------|

[Chorus End]

e|----------|----------|-------|
B|----------|----------|-------|
G|----------|----------|-------|
D|----------|----------|-------|
A|-5--5--5--|-5-5-5-5--|-5--5--|
E|-3--3--3--|-3-3-3-3--|-3--3--|

[Bridge] x4

e|---------------------------------|-----------|
B|---------------------------------|-----------|
G|---------------------------------|-----------|
D|---------------------------------|--7--------|
A|-5-5-5-5-5-5-5-5-5-5-5-5-5-5-5-5-|--5--------|
E|-3-3-3-3-3-3-3-3-3-3-3-3-3-3-3-3-|-----------|
  PM PM PM PM PM PM PM PM PM PM PM 


[Main Riff] x4

e|---------------|---------------|------------|---------------|
B|---------------|---------------|------------|---------------|
G|---------------|---------------|------------|---------------|
D|---------------|---------------|------------|---------------|
A|-8-8-8-8-8-8-8-|-7-7-7-7-7-7-7-|-2--4---5-4-|-2-2--4---5-4--|
E|-6-6-6-6-6-6-6-|-5-5-5-5-5-5-5-|-0--2---3-2-|-0-0--2---3-2--|

[Main Riff Ending]

e|--------------|
B|--------------|
G|--------------|
D|--------------|
A|-2-2--4--5-4--|
E|-0-0--2--3-2--|

[Chorus] x3

e|----------|----------|-------|----------------|--------------|
B|----------|----------|-------|----------------|--------------|
G|----------|----------|-------|----------------|--------------|
D|----------|----------|-------|-7-7-7-7-7-7-7--|-8-8---3-3-3--|
A|-5--5--5--|-5-5-5-5--|-5--5--|-5-5-5-5-5-5-5--|-6-6---1-1-1--|
E|-3--3--3--|-3-3-3-3--|-3--3--|----------------|--------------|

[Chorus End]

e|----------|----------|-------|
B|----------|----------|-------|
G|----------|----------|-------|
D|----------|----------|-------|
A|-5--5--5--|-5-5-5-5--|-5--5--|
E|-3--3--3--|-3-3-3-3--|-3--3--|




************************************
| PM  Palm mute
************************************

That's All.
Enjoy And Rate.
Suggest correction
Give kudos to tab author, rate the tab!
1 2 3 4 5
comments
print report bad tab
guest
You may want to rate the tab now too:
select rating
Wanna post a correction for this tab? Suggest correction