Oops, an error
Loading. Please wait.

Mami tab

by Vico C
66 views 1 this week
no commentswrite comment
1 2 3 4 5
3 more votes to show rating
add to favorites
×
Save as Personal and add changes to this tab that will be seen only by you. Learn more ›
×
You can save this tab as Personal to edit and correct it or add notes. All changes will be seen only by you. Learn more »
launch autoscroll
font size
0
reset
how to read this tab
guitar tuner
edit
Autoscroll
slow
fast
+/-
esc
set tempo
stop
Q onda hermanos, ps aki les djo sta rola q m la pidio 1 compa
pa sacarla el dia d las madres, so ai la pongo, les mando dos
intros a ver con cual se acomodan, asi como los riffs, d la
guitarra electrica, stan faciles van a ver qsi les sale, bueno
pues dedicada para "TAHIMY KARINA" q le gusta muxo Vico-C,pero
con muxa mas especial dedicacion para mi

                      "MADRE"

es lo mejor q tngo en la vida y aunque a veces peleamos ps
simple y sencillamente la "amo"

"quise hacerle un verso, y no salgo del comienzo
pero es que a una madre yo pienso, solo se le
puede dar amor, en la pasion y ternura de un beso"


y dice asi:

INTRO:

Gm  Dm  Gm  Dm/C#m/Cm  F A# D Gm  Dm  Gm  Dm/C#m/Cm  F A# F

                                X 2

E-------------------------------------------------------
A-------------------------------------------------------
D-3-5---5----------3--3-5---5---------3--3-2-1----------
G-----3---------5-3-------3--------5-3--------0-3-5-5/7-
B----------3/4-3--------------3/4-3---------------------
e-------------------------------------------------------

E---------------
A-------------8-
D---8-7--7/8-7--
G-5-------------
B---------------
e---------------


 A#
Mami     riff 1
   Gm                          Dm
como recuerdo como me mimabas cuando pequeño  riff 2
   Gm                                      Dm  Dm/C#m/Cm
tu me enseñaste a darle a la vida un mejor diseño
       Cm                                  F
y te encargaste de darme el cariño y la disciplina

    A#
Oye mami
    Gm                          Dm
apesar de los dias en que no habia dinero
   Gm                                       Dm
tu me enseñaste a sentirme orgulloso y a ser sincero
   Cm                                     D
y a no vivir de manera ilegal en cualquier esquina


precoro:
 D#                    F                D
Mami tu fuiste como un angel, fuiste la luz que
   Gm             Dm             Gm             Dm
alumbraba  en mi temor, la que consolaba en mi dolor  riff 3
   Cm                  D          A#
pero te voy  a ver otra vez, otra vez


coro:  X DOS

  A#                       Dm   Dm   Dm   Dm
Aya donde no necesitaremos sol, sol, sol, sol
  A#                         Dm    Dm   Dm   Dm
aya donde la luz serà la del amor, mor, mor, mor
 D#                   F       D                 Gm Dm D#
donde ya no estaras canzada donde ya no veras el fi-i-in
D#                   F         A#        F     A#
cuando me llegue la hora nos vemos ahi, o si, o si


 A#
Mami
    Gm                                        Dm
me consolaste en el tiempo en que andaba bien confundido
      Gm                                     Dm  Dm/C#m/Cm
cuando pensaba que al fin la droga me habia vencido
      Cm                                     F
sin importar como ya me encontraba me amabas tanto

    A#
Oye mami
       Gm                              Dm
ahora que te visito a la tumba quiero tenerte
        Gm                                    Dm  Dm/Cm
aunque confiezo tu cancer me afecto mas que tu muerte
    Cm                                        D
perdi la amiga que me acompañaba atravez del llanto


precoro:

D#                    F                D
Mami tu fuiste como un angel, fuiste la luz que
   Gm             Dm             Gm             Dm
alumbraba  en mi temor, la que consolaba en mi dolor  riff 3
   Cm                  D          A#
pero te voy  a ver otra vez, otra vez


coro =  x dos

aya donde............................


para el final se repite otra vez el intro

nana, nana , nana na na na, nana ,nana na na na


final:
D----------------------------
G--------7/8-----------------
B--6/8-6------11-------------
e----------------8-8/10------


riff 1
B--6/8--6---
e-----------

riff 2
B-----------
e--5/8--5---


riff 3  se toca conforme se canta el precoro

A-------------------------------------------------
D-3-5---5----------3--3-5---5---------3--3-2-1----
G-----3---------5-3-------3--------5-3--------0-3-
B----------3/4-3--------------3/4-3---------------
e-------------------------------------------------


intro 2, opcional x si les cuesta trabajo el otro


E----------------------------------------------------
A-8-10---10----------8-8-10-10----------8--8-7-6-10--
D------8---------10-8------8--------10-8-------------
G-----------7/8-7--------------7/8-7-----------------
B----------------------------------------------------

E------------------------------
A-------------------------8----
D-8-10-10/12-10-8-7-7/8-7------
G------------------------------

            
            
Suggest correction
Creating personal tab
Creating personal tab
You can edit any tab online and save it as your Personal.

You can edit, replace or remove any tab part or add personal notes – all changes will be seen only by you.

Personal tabs can be accessed anytime from any device, even offline.
Learn more »
Give kudos to tab author, rate the tab!
1 2 3 4 5
comments
print report bad tab
guest
Wanna post a correction for this tab? Suggest correction