Oops, an error
Loading. Please wait.

Amores chords

13 views 1 this week
no commentswrite comment
1 2 3 4 5
3 more votes to show rating
add to favorites
×
Save as Personal and add changes to this tab that will be seen only by you. Learn more ›
×
You can save this tab as Personal to edit and correct it or add notes. All changes will be seen only by you. Learn more »
launch autoscroll
font size
0
reset
transpose
0
reset
simplify chords
display chords
guitar tuner
edit
Autoscroll
slow
fast
+/-
esc
set tempo
stop
Strumming
There is no strumming pattern for this song yet. and get +5 IQ
aqi les dejo esta magnifica rola de las victimas..
disfrutenla al 100%..  TE AMO NATALI.!!

                        "AMORES"

Afinacion Standart: [E A D G B e]


Intro:   Bm -  A  -  G  x3

[Ska]

Bm         A
 Me duele descubrir que
G                           Bm
ya no siento mas lo mismo
        A           G
pero no me gusta mentir.
Bm       A        G
A veces yo trataba
                    Bm
de verte como antes
        A            G
pero no se puede engañar al corazon.


CORO:

      D5                        A5                     G5
Hay amores, hay amores que te matan,hay amores que te salvan,
                       B5          A5           D5
hay amores que te encienden o te apagan hay amores,
                 A5                       G5
hay amores ke te salvan, hay amores ke te matan,
                    B5           A5
hay amores ke te encienden o te apagan.


    Bm  -  A  -  G   x2


Bm      A
Voy a explicarte
  G                        Bm
cuando abandone lo nuestro
            A            G
pero hace tiempo que se fue.
Bm        A       G
A veces yo trataba
                    Bm
de verte como antes
        A            G
pero no se puede engañar al corazón.


[CORO]


Solo:
     Bm                            G
e|------------------------------|------------------------------|
B|---8/7-5-7--5-7-----5-7-5-----|---8/7-5-7--5-7---------------|
G|----------------7-7--------7--|----------------7-4-----------|
D|------------------------------|------------------------------|
A|------------------------------|------------------------------|
E|------------------------------|------------------------------|
     D                             A                             x2
e|------------------------------|------------------------------|
B|---8/7-5-7--5-7-----5-7-5-----|---------7~8~-----------------|
G|----------------7-7--------7--|---6~7~9~---------------------|
D|------------------------------|------------------------------|
A|------------------------------|------------------------------|
E|------------------------------|------------------------------|

[CORO]


Bm  -  A  -  G   x4
O te apagan
O te apagan
O te apagan

[Coro]

Termina en D


ACORDES:

     Bm    A    G    D5   A5   G5   B5
e|----2----5----3----------------------------|
B|----3----5----3----------------------------|
G|----4----6----4-----7----------------------|
D|----4----7----5-----7----7----5----9-------|
A|----2----7----5-----5----7----5----9-------|
E|----x----5----3----------5----3----7-------|


Saludos al Marco.!!..    Nata te amo.!!!

            
            
Suggest correction
Creating personal tab
Creating personal tab
You can edit any tab online and save it as your Personal.

You can edit, replace or remove any tab part or add personal notes – all changes will be seen only by you.

Personal tabs can be accessed anytime from any device, even offline.
Learn more »
Give kudos to tab author, rate the tab!
1 2 3 4 5
comments
print report bad tab
guest
Wanna post a correction for this tab? Suggest correction