Oops, an error
Loading. Please wait.

Humanos tab

43 views 1 this week
no commentswrite comment
1 2 3 4 5
3 more votes to show rating
add to favorites
×
Save as Personal and add changes to this tab that will be seen only by you. Learn more ›
×
You can save this tab as Personal to edit and correct it or add notes. All changes will be seen only by you. Learn more »
launch autoscroll
font size
0
reset
how to read this tab
guitar tuner
edit
Autoscroll
slow
fast
+/-
esc
set tempo
stop
les sugiero que ocupen puras quintas y 
dos tipos de dist. una leve y otra ya mas
pesada y en la dist. leve hagan un (pm)
para que se oiga mas chido

intro:
with dist.
RE5-LA#5-FA5


verso:A
RE5   LA#5      FA5
   yo se pudiste tocar
          LA#5                 LA5            SOL5
el universo sin permiso de dios
(A)
y nadaste sin escamas 
como un tiburon


intro: 2 times


(A)
te vi pudiste volar
y nisiquiera tu naciste en un huevo
(A)
y tu crees que madre tierra
no se vengara


puente:
FA5               LA5                RE5
te crees due*o del universo
          DO5              LA#5
tan solo eres primate
        DO5                FA5
con internet y estres
FA5                   LA5                 RE5
tu crees que esta raza humana
           DO5            LA#5
siempre sera perfecta
      DO5              FA5
y no se extinguira


coro:
              FA5  DO5        RE5
no eres tu, no eres tu
DO5         LA#5                 DO5
no eres due*o del universo
FA5  DO5       RE5
si, no eres tu
DO5          LA#m             DO5
no eres due*o del universo


intro: 2 times


(A)
tu crees tener el poder
y el derecho de matar a quien quieras
(A)
y eres como el mal sue*o 
de una gran tortuga

  
puente:


coro:


intro: 2 times


solo:
con los acordes del coro
6:----------------------------------------------
5:----------------------------------------------
4:----------------------------------------------
3:-----------12----------------------12---------
2:10/11-10----10-10-10-10/11-10----10-11-13-----
1:----------------------------------------------

6:----------------------------------------------------
5:----------------------------------------------------
4:----------------------------------------------------
3:----------------------------------------------------
2:------------------------13----13-11-10-11-13-10-11--
1:---10-12-13-13-12-10-12-10----10--------------------


6:-----------------------------------------------
5:-----------------------------------------------
4:-----------------------------------------------
3:------------12----------------------12---------
2:-10/11-10----10-10-10-10/11-10----10-11-13-----
1:-----------------------------------------------


6:---------------------------------------------------
5:---------------------------------------------------
4:---------------------------------------------------
3:---------------------------------------------------
2:---------------------------------------------------
1:---10-12-13-13-12-10-12-13-12-10-12-13-12-12/17***-


coro:


coro: con violines y chelo


intro: con violines y chelo


eso es todo amigos
Y ESTA ROLA VA PARA TODA LA GENTE QUE NO
 SE A DADO CUENTA QUE SOLO SOMOS HUMANOS
Y QUE NO SOMOS LOS DUE*OS DEL MUNDO, PARA
TODOS ESOS IDIOTAS QUE PIENSAN QUE PUEDEN 
HACER CUALQUIER COSA, MATAR ROBAR Y DESTRUIR
Y HASTA CLONAR.
ESTA ROLA VA PARA TODOS ELLOS.

            
            
Suggest correction
Creating personal tab
Creating personal tab
You can edit any tab online and save it as your Personal.

You can edit, replace or remove any tab part or add personal notes – all changes will be seen only by you.

Personal tabs can be accessed anytime from any device, even offline.
Learn more »
Give kudos to tab author, rate the tab!
1 2 3 4 5
comments
print report bad tab
guest
Wanna post a correction for this tab? Suggest correction