Oops, an error
Loading. Please wait.

Nahual bass

56 views 3 this week
no commentswrite comment
1 2 3 4 5
3 more votes to show rating
add to favorites
×
Save as Personal and add changes to this tab that will be seen only by you. Learn more ›
×
You can save this tab as Personal to edit and correct it or add notes. All changes will be seen only by you. Learn more »
launch autoscroll
font size
0
reset
guitar tuner
edit
Autoscroll
slow
fast
+/-
esc
set tempo
stop
versos:
with dist.
4:-0-3-3-3--------3--0-3-3-3--------3-4--
3:----------5-4-0--------------5-4-0---6--
2:------------------------------------------
1:------------------------------------------

4:-0-3-3-3--------3--0-3-3-3--------3----
3:----------5-4-0--------------5-4-0---5--
2:---------------------------------------7--
1:------------------------------------------


coro:
si es que en realidad hay un coro
4:-3-3-3-4-4-4-5-5-5-6-6-6-3-3-3-4-4-4-5-5-5-6-6-6--
3:---------------------------------------------------------
2:---------------------------------------------------------
1:---------------------------------------------------------


cambio:
cuando se detiene la rola y queda
algo como musica folkclor
4:-------3------3-------------------3------3-------
3:-3-------2-5----2-5-3-----3--------2-5----2-5--
2:---2-5-----------------2-5---2-5----------------
1:--------------------------------------------------


cambio: final
4:---2-5---2-5----2-5----2-5-----------
3:-2-----2------2------2------2-3-2-0--
2:---------------------------------------
1:---------------------------------------


la verdad me siento un poco defraudado al
 no encontrar mas rolas de sta banda tan buena
que por cierto el dia de ayer cuando estaba 
rebisando entre mis cosas que tenia guardadas 
desde hace un buen rato me encontre dos cd's
(brujerias)(boutique 2000)de las victimas
del doctor cerebro asi que me puse a escuchar
y ya les tengo mas rolas de estos cd's
para que no se les olvide que en mexico 
tambien se hace buen rock

            
            
Suggest correction
Creating personal tab
Creating personal tab
You can edit any tab online and save it as your Personal.

You can edit, replace or remove any tab part or add personal notes – all changes will be seen only by you.

Personal tabs can be accessed anytime from any device, even offline.
Learn more »
Give kudos to tab author, rate the tab!
1 2 3 4 5
comments
print report bad tab
guest
Wanna post a correction for this tab? Suggest correction