Oops, an error
Loading. Please wait.

Noche Lluviosa tab

22 views 1 this week
no commentswrite comment
1 2 3 4 5
3 more votes to show rating
add to favorites
×
Save as Personal and add changes to this tab that will be seen only by you. Learn more ›
×
You can save this tab as Personal to edit and correct it or add notes. All changes will be seen only by you. Learn more »
launch autoscroll
font size
0
reset
how to read this tab
guitar tuner
edit
Autoscroll
slow
fast
+/-
esc
set tempo
stop
 Intro:  Gtr.1(dist.)

           C          G          D            G                 (4 veces)
   
e|------------------------------------------------------------------------|   
B|-----5-----------------------7------------------------------------------|
G|-----5----------4-----------7------------4---X---4---X---4--------------|
D|-----5----------5-----------7------------5---X---5---X---5--------------|
A|-----3----------5-----------5------------5---X---5---X---5--------------|
E|----------------3-----------------------3---X---3---X---3---------------|

     Gtr.2(clean) toca todo el verso con D  *no se exactamente como   
     toca el acorde pero nomas trata de hallarle
 
 Riff.1 Gtr.1(dist.)                                             (3 veces)
   
e|---------------------------------------------------------------------|
B|-----5h7~-----5~--------5h7--5---------------------------------------|
G|-----------------------------------7~--------------------------------|
D|---------------------------------------------------------------------|
A|---------------------------------------------------------------------|
E|---------------------------------------------------------------------|
      inmediatamente toca:

 Riff.2
   
e|---------------------------------------------------------------|
B|-----5h7~-----5~--------5---7---8---7--------5--5-----7--7~----|
G|---------------------------------------------------------------|
D|---------------------------------------------------------------|
A|---------------------------------------------------------------|
E|---------------------------------------------------------------|

   Gtr.2 toca verso con D

 Te conoci en una noche lluviosa
 y no hubo rayo que opacara tu luz
 y me aloje en humedos parajes
 de alguna parte de tu espina dorsal

  w/Riff.1    2 veces

 Te conoci en una noche lluviosa
 nuestros temores nos pasaro sin ver
 perdimos peso pero ganamos ojeras
 ese es el precio que exige el amor

 CORO: w/Intro
 Nunca ta voy a olvidar
 no sabes que va a pasar
 Nunca te voy a olvidar
 conmigo siempre estaras

 Te conoci en una noche lluviosa
 y no hubo rayo que opacara tu luz
 y te pregunte porque eras extraordinaria
 y me dijiste simplemente aqui estoy

 CORO

 Solo  Gtr.2(dist.)
   
e|---------------------------------------------------------------------|
B|----7~-----8--7h8p7p5------7~-----8--7h8p7p5------7~-----------------|
G|---------------------------------------------------------------------|
D|---------------------------------------------------------------------|
A|---------------------------------------------------------------------|
E|---------------------------------------------------------------------|
   
   
e|---------------------------------------------------------------------|
B|----8--7h8p7p5----8b----8-8--7-7--5-5---------5-5---7-7---7--8--7~---|
G|-------------------------------------------------------5-5-----------|
D|---------------------------------------------------------------------|
A|---------------------------------------------------------------------|
E|---------------------------------------------------------------------|

   Se repite el Riff.1 4 veces & Riff.2

  CORO

  Y ya estuvo.......
Suggest correction
Creating personal tab
Creating personal tab
You can edit any tab online and save it as your Personal.

You can edit, replace or remove any tab part or add personal notes – all changes will be seen only by you.

Personal tabs can be accessed anytime from any device, even offline.
Learn more »
Give kudos to tab author, rate the tab!
1 2 3 4 5
comments
print report bad tab
guest
Wanna post a correction for this tab? Suggest correction