Oops, an error
Loading. Please wait.

Suena Mi Esqueleto bass

384 views 1 this week
no commentswrite comment
1 2 3 4 5
3 more votes to show rating
add to favorites
×
Save as Personal and add changes to this tab that will be seen only by you. Learn more ›
×
You can save this tab as Personal to edit and correct it or add notes. All changes will be seen only by you. Learn more »
launch autoscroll
font size
0
reset
guitar tuner
edit
Autoscroll
slow
fast
+/-
esc
set tempo
stop
INTRO Y
VERSO
   C#           E           F#          A
G|--------------------------------------------------|
D|----6-6---6------9-9---9--------------------------|
A|-4-4---4-4-4--7-7---7-7-7----4-4---4-----7-7---7--|
E|--------------------------2-2---2-2-2-5-5---5-5-5-|

Ya estoy cansado de estar sin trabajar
yo sólo pido una oportunidad.

Y yo busco la respuesta,
en un radio viejo y en un chachacha.

CORO
   C#          B
G|-------------------------|
D|----6-6---6-----4-4------|
A|-4-4---4-4-4-2-2---2-3-4-|
E|-------------------------|X2

Y suena y suena y suena mi esqueleto
suena y suena y suena al bailar,
suena y suena y suena mi esqueleto
suena y suena y suena al balar.

VERSO
   C#           E           F#          A
G|--------------------------------------------------|
D|----6-6---6------9-9---9--------------------------|
A|-4-4---4-4-4--7-7---7-7-7----4-4---4-----7-7---7--|
E|--------------------------2-2---2-2-2-5-5---5-5-5-|

Y en las noches me pongo a bailar
y se dibuja mi sombra en la pared

Y mi cerebro empieza a reventar
como un sapo al enojar.

CORO
   C#          B
G|-------------------------|
D|----6-6---6-----4-4------|
A|-4-4---4-4-4-2-2---2-3-4-|
E|-------------------------|X2

Y suena y suena.....

VERSO
   C#           E           F#          A
G|--------------------------------------------------|
D|----6-6---6------9-9---9--------------------------|
A|-4-4---4-4-4--7-7---7-7-7----4-4---4-----7-7---7--|
E|--------------------------2-2---2-2-2-5-5---5-5-5-|

Y en las noches
empieza a sonar una batería
que no me deja soñar.

PUENTE
   E    D#   D    C#
G|--------------------------|
D|--------------------------|
A|-7777-6666-5555-4444-4/12-|
E|--------------------------|

Y suena y suena mi esqueleto.... (SOLO BATERIA)
Ráspete esa tibia. Y suena.....

CORO
   C#          B
G|-------------------------|
D|----6-6---6-----4-4------|
A|-4-4---4-4-4-2-2---2-3-4-|
E|-------------------------|X2

VERSO
   C#           E           F#          A
G|--------------------------------------------------|
D|----6-6---6------9-9---9--------------------------|
A|-4-4---4-4-4--7-7---7-7-7----4-4---4-----7-7---7--|
E|--------------------------2-2---2-2-2-5-5---5-5-5-|

FIN
   E    D#   D    C#   E E
G|-------------------------|
D|-------------------------|
A|-7777-6666-5555-4444-7-7-|
E|-------------------------|

NOTA: EN A METE UN ARREGLITO

G|-----------------------5-|
D|------7-7---7-----5-6-7--|
A|...5-5---5-5-5-5-7-------|
E|-------------------------|
Suggest correction
Creating personal tab
Creating personal tab
You can edit any tab online and save it as your Personal.

You can edit, replace or remove any tab part or add personal notes – all changes will be seen only by you.

Personal tabs can be accessed anytime from any device, even offline.
Learn more »
Give kudos to tab author, rate the tab!
1 2 3 4 5
comments
print report bad tab
guest
Wanna post a correction for this tab? Suggest correction