Oops, an error
Loading. Please wait.

Yo Se Bien tab

7 views 1 this week
no commentswrite comment
1 2 3 4 5
3 more votes to show rating
add to favorites
×
Save as Personal and add changes to this tab that will be seen only by you. Learn more ›
×
You can save this tab as Personal to edit and correct it or add notes. All changes will be seen only by you. Learn more »
launch autoscroll
font size
0
reset
how to read this tab
guitar tuner
edit
Autoscroll
slow
fast
+/-
esc
set tempo
stop
Intro:
      C A# F G  (Distorcion pesada)(Son power chords)

-Repite esto 4x

-En los versos usas los mismos tonos pero estan muted

Verso:
      C     A#       F       G   (LA guitarra va al tiempo
      Yo se bien que tu te iras  (como en la intro)
      Y mi sangre beberas        (Los tonos no estan 
      No importa                 (exactamente en posicion
      Te esperare                (con la letra)

      Yo se bien dices jamas
      Y de noche volveras
      No importa
      Aun esperare
-Y los versos se siguen repitiendo con los mismos tonos
 hasta el coro

Coro:                         
       F                  G       (Los tonos no estan
       No me digas que no quieres (exactamente en posicion
       F              G           (con LA letra)
       Ver jamas la luz del sol
       F                C G/A
       Aqui estoy esperando
            C G/A
       Esperando

       C A# F G  

-Repite esto 2x

Verso:
       C     A#       F      G
       Yo se bien que tu te iras
       Y alguien mas devoraras
       No importa
       Te esperare

       Yo se bien que tu te iras
       Y estare una eternidad
       Rondando
       En tu pared

Coro:
       F                  G       
       No me digas que no quieres 
       F              G           
       Ver jamas la luz del sol
       F                C G/A
       Aqui estoy esperando
            C G/A
       Esperando

Solo:  

-Los tonos de acompanamiento son estos, al mismo tiempo 
 como en el coro

       G E  G E  D A  D A  G A  G A  D A

  
e----------------------------------------------------------------73-------
b----------------------------------------------5-3---53-------------------
g-----44-45-4---------44-45-4-------4-5/7-5-454--------54-55-54-5---------
d-5-7---------75--5-7---------75--7---------------------------------------
a-------------------------------------------------------------------------
E-------------------------------------------------------------------------
  

e------------------------------------------------------
b-----------------------------------------------5-3***-
g-----44-45-4---------44-45-4-------4-5/7-5-454--------
d-5-7---------75--5-7---------75--7--------------------
a------------------------------------------------------
E------------------------------------------------------


-El resto de la cancion es igual
-Al final de las ultimas hace un adorno con la guitarra que va asi

e--------
b--------
g-----44-     
d-5-7----
a--------
E--------

- Se repite varias veces con la voz el adorno


Soy Daniel y toco con una banda de California que se llama
METAMORFOSIS, Escrbanme si tienen preguntas o comentarios
al Purorockpuro@ y viva el rock
Suggest correction
Creating personal tab
Creating personal tab
You can edit any tab online and save it as your Personal.

You can edit, replace or remove any tab part or add personal notes – all changes will be seen only by you.

Personal tabs can be accessed anytime from any device, even offline.
Learn more »
Give kudos to tab author, rate the tab!
1 2 3 4 5
comments
print report bad tab
guest
Wanna post a correction for this tab? Suggest correction