Oops, an error
Loading. Please wait.

Lembranas De Amor Tab

1,223 views 1 this week
no commentswrite comment
1 2 3 4 5
2 more votes to show rating
add to favorites
launch autoscroll
font size
0
reset
how to read this tab
guitar tuner
Autoscroll
slow
fast
+/-
esc
set tempo
stop
Help us to improve Ultimate-Guitar.com Take our survey!
×
Author
Intro: 
                     D                     Bm                          D
e|----5-5-------------------5-5-------------------------------------------|
B|--------7-7-5-5-3-5/7---------7-7-5-5-3-3/5-3---3-----3-3---------------|
G|----------------------------------------------4-----------4-4-2-2---0H2-|
D|------------------------------------------------------------------4-----|
A|------------------------------------------------------------------------|
E|------------------------------------------------------------------------|
                   Bm            A
e|------------------------------------------------------------------------|
B|--3-3-------------------------------------------------------------------|
G|------4-4-2-2---2H4-------2-4-4/6---------------------------------------|
D|--------------4---------4-----------------------------------------------|
A|------------------------------------------------------------------------|
E|------------------------------------------------------------------------|

Bm       G 
Veja só 

Sei que palavras não consertam nada mais 
            D
Eu acho que é melhor
         A
A gente conversar

Bm       G         Efeito (Bm)
Afinal            (e|----5/7-|
                   B|--3-----|
                                             D
Nosso caso não difere de outros casos que acabaram mal
       A
Só pra te lembrar
         G                          A              D    A
Eu já sofri demais, mas longe de você sofrerei bem maaa-ais...

   Refrão
     D                                           Em
   Preciso te dizer o que acontece com meu sentimento
            A
   Chego em casa e não te vejo
                           Bm
   Meu desejo é te ligar correndo
     D                                        Em
   E pouco a pouco a solidão e o silêncio me abraçam
          G
   Minha alegria passou
            A                        Bm
   Só as lembranças de amor... não passam

                     D                     Bm                          D
e|----5-5-------------------5-5-------------------------------------------|
B|--------7-7-5-5-3-5/7---------7-7-5-5-3-3/5-3---3-----3-3---------------|
G|----------------------------------------------4-----------4-4-2-2---0H2-|
D|------------------------------------------------------------------4-----|
A|------------------------------------------------------------------------|
E|------------------------------------------------------------------------|
                   Bm            A
e|------------------------------------------------------------------------|
B|--3-3-------------------------------------------------------------------|
G|------4-4-2-2---2H4-------2-4-4/6---------------------------------------|
D|--------------4---------4-----------------------------------------------|
A|------------------------------------------------------------------------|
E|------------------------------------------------------------------------|


Bm       G
Afinal              Efeito (Bm)
                    (e|---7-5-3-|)
                    (B|-3-------|)
                                             D
Nosso caso não difere de outros casos que acabaram mal
       A
Só pra te lembrar
         G                          A              D    A
Eu já sofri demais, mas longe de você sofrerei bem mais
Suggest correction
Give kudos to tab author, rate the tab!
1 2 3 4 5
comments
print report bad tab
guest
You may want to rate the tab now too:
select rating
Wanna post a correction for this tab? Suggest correction