Oops, an error
Loading. Please wait.

Ojos De Cielo tab

109 views 1 this week
no commentswrite comment
1 2 3 4 5
3 more votes to show rating
add to favorites
×
Save as Personal and add changes to this tab that will be seen only by you. Learn more ›
×
You can save this tab as Personal to edit and correct it or add notes. All changes will be seen only by you. Learn more »
launch autoscroll
font size
0
reset
how to read this tab
guitar tuner
edit
Autoscroll
slow
fast
+/-
esc
set tempo
stop
VICTOR HEREDIA

Ojos del cielo

1|----0-0-0-0--0-3-0---------0----------------------|
2|-------------------1-3-3-3---3-1-----0-3-0--------|
3|--2------------------------------2-2-------1-2-2--| X2
4|--------------------------------------------------|
5|--------------------------------------------------|
6|--------------------------------------------------|

1|--0-0-0-3-0--------3----------1----------0----|
2|-------------3-3-3---3--3-3-3---3--1-1-1---1--|
3|----------------------------------------------|
4|----------------------------------------------|
5|----------------------------------------------|
6|----------------------------------------------|

1|--0-0-0-3-5-3-3-3-3----------1---------------|
2|--------------------3--3-3-3---3--------1----|
3|----------------------------------2-2-2---2--|
4|---------------------------------------------|
5|---------------------------------------------|
6|---------------------------------------------|

1|--0-0-3---------0--------|
2|--------3-3-3-3---1-0----|
3|----------------------2--| X2
4|-------------------------|
5|-------------------------|
6|-------------------------|


LAm                             SOL
Si yo miro el fondo de tus ojos tiernos
               FA    MI7         LAm
se me borra el mundo con todo su infierno
                                    SOL
Se me borra el mundo y descubro el cielo
             FA    MI7         LAm
cuando me zambullo en tus ojos tiernos

DO              SOL
Ojos del cielo, ojos del cielo
REm             LAm
no me abandones en pleno vuelo
DO              SOL
Ojos del cielo, ojos del cielo
REm              LAm
toda mi vida por ese sueño
DO       SOL    REm      LAm
Ojos del cielo, ojos del cielo
DO       SOL    REm      LAm
Ojos del cielo, ojos del cielo


(este es un arreglo que puede ir entre medio de las
 estrofas para que la canción no sea tan densa.
 Tiene un estilo Inca que pega bien con este tema).

ARREGLO :

    LAm         DO     MI7         LAm
1|----------------------------------------|
2|----------------------------------------|
3|----------------------------------------|
4|----------5-7-5-5-5--7-5---5---5--------|
5|------5-7----------------7---7----------|
6|--5-7----------------------------5-5-5--|

    LAm         DO     MI7         LAm
1|--------------------------------------|
2|--------------------------------------|
3|--------------5-7-5--7-5--------------|
4|----------5-7------------7-5---5------|
5|------5-7--------------------7--------|
6|--5-7----------------------------5----|

Primera guitarra como punteo :

1|--------------------|
2|--0--1----0--1-1-1--|
3|--1--2----1--2-2-2--|
4|--0--2----0--2-2-2--|
5|-----0-------0-0-0--|
6|--0-------0---------|

Segunda guitarra (si hay) como rasguido :

1|--x--x----x--x-x-x--|
2|--0--1----0--1-1-1--|
3|--1--2----0--2-2-2--|
4|--0--2----1--2-2-2--|
5|--2--0----2--0-0-0--|
6|--0--0----0--0-0-0--|

LAm                          SOL
Si yo me olvidara de lo verdadero,
            FA   MI7       LAm
si yo me alejara de lo más sincero,
LAm                     SOL
tus ojos de cielo me lo recordaran,
         FA      MI7   LAm
si yo me alejara de lo verdadero.

Ojos del cielo...

ARREGLO

LAm                                    SOL
Si el sol que me alumbra se apagara un día
            FA     MI7       LAm
y una noche oscura ganara mi vida,
LAm                          SOL
tus ojos de cielo me iluminarían,
            FA     MI7         LAm
tus ojos sinceros, mi camino y guía.

Ojos del cielo...

FINAL AGREGADO :

    Rápido             Lento
    LAm                MI7 LAm MI7 LAm
1|--------------0-1-0--------------5--|
2|--------0-1-3--------3-1-0-------5--|
3|--2-1-2--------------------2---2-5--|
4|------------------------------------|
5|------------------------------------|
6|------------------------------------|

            
            
Suggest correction
Creating personal tab
Creating personal tab
You can edit any tab online and save it as your Personal.

You can edit, replace or remove any tab part or add personal notes – all changes will be seen only by you.

Personal tabs can be accessed anytime from any device, even offline.
Learn more »
Give kudos to tab author, rate the tab!
1 2 3 4 5
comments
print report bad tab
guest
Wanna post a correction for this tab? Suggest correction