Oops, an error
Loading. Please wait.

Amigo Apasionado tab

version 1
version 1

Whole song

22 views 1 this week
no commentswrite comment
1 2 3 4 5
3 more votes to show rating
add to favorites
×
Save as Personal and add changes to this tab that will be seen only by you. Learn more ›
×
You can save this tab as Personal to edit and correct it or add notes. All changes will be seen only by you. Learn more »
launch autoscroll
font size
0
reset
how to read this tab
guitar tuner
edit
Autoscroll
slow
fast
+/-
esc
set tempo
stop
 e|--7-------7----5-----------5----3---------
 B|--5-----5---5----------3----3--------3----
 G|--5---5-------5-------0-------0-----0-----
 D|--7-7--------------4-------------2--------
 A|--7------------5----------------3---------


   -3-------5-----5---------------7-----5---------|
   --1-------3-----3-----------5---5-------------3|
   -------------0-----0-------5-------5--------0--|
   ------------------------7-----------------4----|
   -----3/5-------------5-7-------------5---------|


 e|--5-----3-------3----------5-------|
 B|----3---------1---1----------3-----|
 G|------0-----0----------------------|
 D|----------2------------------------|
 A|--------3-----------3-3/5----------|
 E|-----------------------------------|


G                                 D9/F#
Pensando bem eu gosto mesmo de você
                      Em
Pensando bem quero dizer
    Am                 D
Que amo ter te conhecido
         G                        D9/F#
Nada melhor que eu deixar você saber
                        Em
Pois é tão triste esconder

Am                D         e|-----3h2---0--------|
Um sentimento tão bonito    B|---------3----------|
                            G|--------------------|

      C                      Cadd9
Hoje mesmo vou te procurar
G
Falar de mim
         C                    Cadd9
Sei que nem chegou a imaginar
          G                      D
Que eu pudesse te amar tanto assim

e|----------5----|
B|---------------|
G|---4/5---------|


G               D    G7     Em
Sempre fui um grande amigo seu
               C      Cadd9       G
Só que não sei mais se assim vai ser
             D     G7        C
Sempre te contei segredos meus
Cadd9         D         G
Estou apaixonado por você
                D G7      Em
Esse amor entrou no coração
                C    Cadd9      G
Agora diz o que é que a gente faz
             D             C
Pode dizer sim ou dizer não
Cadd9         D          G
Ser só seu amigo não dá mais

(Solo)(G D Em C G D C D G G)

e|--15-----15-----15--17-----17-----17--15---
b|16--16-16--16-16--16--15-15--15-15--16--16-

--15--15--15-15/14-14-14/12-12-12/10-10/7-7-7/5-5-5~-------5-7-7-5------
16--16--16-------------------------------------------5/7-8---------8-8~---


e|----------------7/10|--7/5-5/3-3|
B|-8-10-10b-8---8-----|-----------|
G|------------9-------|--7/5-5/4-4|

         G                        D D4 D
Nada melhor que eu deixar você saber
                        Em
Pois é tão triste esconder
    Am                 D
Um sentimento tão bonito

e|-------0-2-0-3-3-3/5-5-5--|
B|-----3--------------------|
G|---2----------------------|
D|-0------------------------|


      C                    G
Hoje mesmo vou te procurar Falar de mim
         C
Sei que nem chegou a imaginar
        G                        D    e|---------5----|
Que eu pudesse te amar tanto assim    B|--------------|
                                      G|---4/5--------|


(coro)


os arpejos são os seguintes:

(Passagem)
e|--5-----5------|
B|----8-----8----|   2X
G|7-----7-----7--|

G ( sempre fui um... )
e|-7--7---7|
B|--8--8---|
G|7--7--7--|

D ( grande amigo... )
e|-5--5---5|
B|--7--7---|
G|7--7--7--|

Em ( seu...só que não sei... )
e|-3--3---3|
B|--5--5---|
G|4--4--4--|

C ( mas se assim vai ser )
e|-3--3---3|
B|--5--5---|
G|5--5--5--|

G ( sempre te con... )
e|-7--7---7|
B|--8--8---|
G|7--7--7--|

D ( tei segredos... )
e|-5--5---5|
B|--7--7---|
G|7--7--7--|

C ( ..meus..estou apaixo...)
e|-3--3---3|
B|--5--5---|
G|5--5--5--|

D ( ...nado por vocÊ... )
e|-5--5---5|
B|--7--7---|
G|7--7--7--|

G ( Esse amor en... )
e|-7--7---7|
B|--8--8---|
G|7--7--7--|

D ( ...trou no coração... )
e|-5--5---5|
B|--7--7---|
G|7--7--7--|

(Pausa)

Em
e|12-12-12|
B|12-12-12|
G|12-12-12|

C ( ..agora diz o que é que a gente faiz...)
e|-3--3---3|
B|--5--5---|
G|5--5--5--|

G ( Pode dizer... )
e|-7--7---7|
B|--8--8---|
G|7--7--7--|

D ( Sim ou dizer... )
e|--10---10---10|
B|---10---10----|
G|11--11---11---|

C ( Não...ser só seu...)
e|-8--8---8|
B|--8--8---|
G|9--9--9--|

D (amigo)
Não dá mais!!!
G ( sol ) pra terminar....

G|-2/4-4-4-4-4-4-4-4-4-4-4/2-
  2-2-2-2-2-2-2-2-2-2/4-4-4-4-4-4-4/7-7-7-7-7-7-7/11-
  11-11-11-11-11-

            
            
Suggest correction
Creating personal tab
Creating personal tab
You can edit any tab online and save it as your Personal.

You can edit, replace or remove any tab part or add personal notes – all changes will be seen only by you.

Personal tabs can be accessed anytime from any device, even offline.
Learn more »
Give kudos to tab author, rate the tab!
1 2 3 4 5
comments
print report bad tab
guest
Wanna post a correction for this tab? Suggest correction