Oops, an error
Loading. Please wait.

Eres Tu tab

32 views 1 this week
no commentswrite comment
1 2 3 4 5
3 more votes to show rating
add to favorites
×
Save as Personal and add changes to this tab that will be seen only by you. Learn more ›
×
You can save this tab as Personal to edit and correct it or add notes. All changes will be seen only by you. Learn more »
launch autoscroll
font size
0
reset
how to read this tab
guitar tuner
edit
Autoscroll
slow
fast
+/-
esc
set tempo
stop
esta es mi primera transcripcion
espero q les guste....


introduccion
6)---------------------------
5)--10---9----10----9--------
4)---------------------------      X4
3)---------------------------
2)-----8-10----8----10-------
1)--10------10---10----10----


esto se escucha antes y
durante las primeras 4 estrofas.

G   D/F#       G   D/F#
Un  dia  tus  pies
G         D/F#   G  D/F#
Me  van  a   llevar
G    D/F#    G   D/F#
A donde mis manos
G     D/F#   G  D/F#
Te puedan tocar


6)--------------------------
5)--------------------------
4)-------9-7-5--------------
3)-7/9-7-----5--------------
2)--------------------------
1)--------------------------

C9 G/B  Am7  Am7/G  D   D4 D4 D D9
Un sueño dejaras de ser


6)--------------------------
5)--------------------------
4)-------------------9-7-5--
3)--7--------7-7/9-7-----5--
2)----7-8-10----------------
1)--------------------------


C9      G/B    Am7     Am7/G   D   D4 D4 D D9
Y a esta soledad la podré   vencer


6)--------------------------
5)--------------------------
4)----------7/9---9-7-5-----
3)------9-7-----7-----5-----
2)--8-7---------------------
1)--------------------------


C9  G/B    Am7  Am7/G        D
Mi amor por ti tienes que conocer,
D4   D   D9
conocer eh eh te dire

G   D/F#  E        C9  G
Que yo,   yo te amo
 D/F#        Em    C9
no puedo negar
G    D/F# Em      C9     G
Que el cielo me abraza
D/F#      Em
con tu mirar
     C9              D
Eres tú lo se mi destino, mi fé
     C9            D                    G
Eres tú lo se y no es necesario entender

                     2)----------8-10------
                     1)-10/12-10-----------


        Intro.


6)--------------------------
5)--------------------------
4)-------7/9---9-7-5--------
3)-7/9-7-----7-----5--------
2)--------------------------
1)--------------------------

C9 G/B  Am7  Am7/G  D   D4 D4 D D9
Un sueño dejaras de ser


6)--------------------------
5)--------------------------
4)-------------------9-7-5--
3)--7--------7-7/9-7-----5--
2)----7-8-10----------------
1)--------------------------


C9      G/B    Am7     Am7/G   D   D4 D4 D D9
Y a esta soledad la podré   vencer


6)-----------------------------------
5)-----------------------------------
4)-------------7/9/7-7/9-----9-7-5---
3)-------7/9/7-----------7-7-----5---
2)-7/8/7-----------------------------
1)-----------------------------------


C9  G/B    Am7  Am7/G        D
Mi amor por ti tienes que conocer,
D4   D   D9
conocer eh eh te dire

G   D/F#  E        C9  G
Que yo,   yo te amo
 D/F#        Em    C9
no puedo negar
G    D/F# Em      C9     G
Que el cielo me abraza
D/F#      Em
con tu mirar
     C9              D
Eres tú lo se mi destino, mi fé
     C9            D                    G
Eres tú lo se y no es necesario entender

G   D/F#  E        C9  G
Y yo,   yo te amo
 D/F#        Em    C9
no puedo negar
G    D/F# Em      C9     G
Que el cielo me abraza
D/F#      Em
con tu mirar
     C9              D
Eres tú lo se mi destino, mi fé
     C9            D                    G
Eres tú lo se y no es necesario entender

                     2)----------8-10-------
                     1)-10/12-10------------

   intro.

6)---------------3----
5)---------------5----
4)-------7/9-----5----
3)-7/9-7-----7---4----
2)-------------8-3----
1)---------------3----


VUALÀ!!!!!!!!

CUALQUIER DUDA ESTE ES MI CORREO:
eduardo_sori@

ah! por cierto tengo una mejor version
sin capotraste de "nada es normal"

solo que no la pude subir
por que me ganaron...

ciao!!

            
            
Suggest correction
Creating personal tab
Creating personal tab
You can edit any tab online and save it as your Personal.

You can edit, replace or remove any tab part or add personal notes – all changes will be seen only by you.

Personal tabs can be accessed anytime from any device, even offline.
Learn more »
Give kudos to tab author, rate the tab!
1 2 3 4 5
comments
print report bad tab
guest
Wanna post a correction for this tab? Suggest correction