Oops, an error
Loading. Please wait.

Haunted Man chords

19 views 3 this week
no commentswrite comment
1 2 3 4 5
3 more votes to show rating
add to favorites
×
Save as Personal and add changes to this tab that will be seen only by you. Learn more ›
×
You can save this tab as Personal to edit and correct it or add notes. All changes will be seen only by you. Learn more »
launch autoscroll
font size
0
reset
transpose
0
reset
display chords
guitar tuner
edit
Autoscroll
slow
fast
+/-
esc
set tempo
stop
Strumming
There is no strumming pattern for this song yet. and get +5 IQ
[Intro]
   F#m           A    D   F#m           A    D   F#m           D
e|--2---2--4--5--5----5----2---2--4--5--5----5----2---2--4--5--5----------|
B|--2------------5----7----2------------5----7----2------------7----------|
G|--2------------6----7----2------------6----7----2------------7----------|
D|--4------------7----7----4------------7----7----4------------7----------|
A|--4------------7----5----4------------7----5----4------------5----------|
E|--2------------5----5----2------------5----5----2------------5----------|

[Verse 1]
D                               A
I fell for the sadness in your smile
        D                  A             E
For the way you tilt your head when you laugh
D                               F#m
I fell, thought you had fallen along
D                               F#m
I fell, thought you had fallen along
     G               F#m            E
But you're a haunted man and I was wrong

[Chorus]
A
Haunted man
     D              A
Why did you lead me on
     D             G       F#m
Why did you let me in your home

[Interlude]
                A    D   F#m            A    D   F#m            D
e|-2--4--5--5---5----5----2---2--4--5---5----5----2---2--4--5---5----|
B|--------------5----7----2-------------7----7----2-------------7----|
G|--------------6----7----2-------------7----7----2-------------7----|
D|--------------7----7----4-------------7----7----4-------------7----|
A|--------------7----5----4-------------5----5----4-------------5----|
E|--------------5----5----2-------------5----5----2-------------5----|

[Verse 2]
D                     A
Soft lips and rugged hands
D                   A           E
Kept me still when I should've run
   D                              A
I didn't see the signs but now I know
   D                              A
I didn't see the signs but now I know
     G               F#m            E
That you're a haunted man that can't let go

[Chorus]
A
Haunted man
     D              A
Why did you lead me on
     D             G       F#m
Why did you let me in your home

[Bridge]
A                        E
Guess you had to try to move on
                  Bm                       A     D  F#m
But you knew all along, yeah you knew all along

[Chorus]
A
Haunted man
     D              A
Why did you lead me on
     D             G       F#m
Why did you let me in your home

[Outro]
          A
e|-2--4---5----|  (hold)
B|--------5----|
G|--------6----|
D|--------7----|
A|--------7----|
E|--------5----|

            
            
Suggest correction
Creating personal tab
Creating personal tab
You can edit any tab online and save it as your Personal.

You can edit, replace or remove any tab part or add personal notes – all changes will be seen only by you.

Personal tabs can be accessed anytime from any device, even offline.
Learn more »
Give kudos to tab author, rate the tab!
1 2 3 4 5
comments
print report bad tab
guest
You may want to rate the tab now too:
select rating
Wanna post a correction for this tab? Suggest correction