Oops, an error
Loading. Please wait.

Sinai tab

by Vidoll
1,240 views 1 this week
no commentswrite comment
1 2 3 4 5
3 more votes to show rating
add to favorites
×
Save as Personal and add changes to this tab that will be seen only by you. Learn more ›
×
You can save this tab as Personal to edit and correct it or add notes. All changes will be seen only by you. Learn more »
launch autoscroll
font size
0
reset
how to read this tab
guitar tuner
edit
Autoscroll
slow
fast
+/-
esc
set tempo
stop
Author
Difficulty
Vidoll - Sinai

Tabbed using hearing, as accurate as possible.
Dont forget to refer to the song as well.
Here it goes...


+Intro.

-1st Guitar :

e--------14--14--14-----14----------15--15--15-----15----------17--17--17--19-17--------|
B---------------------------------------------------------------------------------------|
G--14s16---16--16--16-16--16~--16s18--18--18--18-18--18~--18s20--20--20---------20~-----|
D---------------------------------------------------------------------------------------|
A---------------------------------------------------------------------------------------|
E---------------------------------------------------------------------------------------|

-2nd Guitar : strumming chords.

e-----------------------------------------------------------------------------------------------|
B-----------------------------------------------------------------------------------------------|
G--9------------------------------------------------------8-------------------------------------|
D--9---------------------------9--------------------------8----------------6--------------------|
A--7---------------------------9--------------------------6----------------6--------------------|
E------------------------------7-------------------------------------------4--------------------|




-1st Guitar : first line

e---------------------------------------------------|
B--/12-/11-/9------9-/11-/12----11--/12-12-12-------|
G----x---x--x------x---x---x-----x----x--x--x-------|
D--/-9-/-8-/6------6-/-8-/-9-----8--/-9--9--9-------|
A---------------------------------------------------|
E---------------------------------------------------|

second line
e-------------------------------------------------------------|
B-------------------------------------------------------------|
G--/11-/9-/8---/15-/16-/18-/21-21-21--/20-20-20---------------|
D----x--x--x-----x---x---x---x--x--x---x---x--x---------------|
A----9-/7-/6---/13-/14-/16-/19-19-19--/18-18-18---------------|
E-------------------------------------------------------------|


-2nd Guitar : strumming..

e-----------------------------------------------------------------------------------------------|
B-----------------------------------------------------------------------------------------------|
G--9------------------------------------------------------8-------------------------------------|
D--9---------------------------9--------------------------8----------------6--------------------|
A--7---------------------------9--------------------------6----------------6--------------------|
E------------------------------7-------------------------------------------4--------------------|

e-----------------------------------------------------------------------------------------------|
B-----------------------------------------------------------------------------------------------|
G--9------------------------------------------------------8-------------------------------------|
D--9---------------------------9--------------------------8----------------6--------------------|
A--7---------------------------9--------------------------6----------------6--------------------|
E------------------------------7-------------------------------------------4--------------------|



+Verses

-1st Guitar : 
e-------------------------------x~--------------------------------------------------------------|
B-------------------------------x~--------------------------------------------------------------|
G-------------------------------x~--------------------------------------------------------------|
D-----------p.h6~---------------x~----------------p.h6~-----------------------------------------|
A-----6-5-6-------6-5-6---------X~---------6-5-6--------6-5-6-----------------------------------|
E---4-------------------4-------X~------4---------------------4---------------------------------|

-2nd Guitar : 
e-------------------------------------x~--------------------------------------------------------|
B-------------------------------------x~--------------------------------------------------------|
G---------------p.h13~----------------x~---------------p.h13~-----------------------------------|
D------13-12-13-------13-12-13--------x~------13-12-13--------13-12-13--------------------------|
A---14-------------------------14-----x~---14--------------------------14-----------------------|
E-------------------------------------x~--------------------------------------------------------|



+Pre-co

-1st Guitar :
e-----------------------------------------------------------------------------------------------|
B---------------------------------------------------------------5-4h5---4-----------------------|
G------------------------------4-3-7~-4-3-----------------------------6---6-4-------------------|
D--2-2-2---------4-4-4--------------------5--2-2-2------4-4-4-----------------5-----------------|
A--2-2-2---------4-4-4-----------------------2-2-2------4-4-4-----------------------------------|
E--0-0-0---------2-2-2-----------------------0-0-0------2-2-2-----------------------------------|

e-----------------------------------------------------------------------------------------------|
B----------------------------------7~-----------------------------------------------------------|
G-------------------------1--3--4-------1-1-1--3h4p3~-------------------------------------------|
D--2-2-2---------4-4-4------------------2-2-2---------------------------------------------------|
A--2-2-2---------4-4-4------------------2-2-2---------------------------------------------------|
E--0-0-0---------2-2-2------------------0-0-0---------------------------------------------------|



-2nd Guitar :
e-----------------------------------------------------------------------------------------------|
B---------------------------------------------------------------9-7h9p7~-7----------------------|
G------------------------------6-4-8~-6-4-------------------------------8-8-6-8-----------------|
D--2-2-2---------4-4-4--------------------6--2-2-2------4-4-4-------------------6---------------|
A--2-2-2---------4-4-4-----------------------2-2-2------4-4-4-----------------------------------|
E--0-0-0---------2-2-2-----------------------0-0-0------2-2-2-----------------------------------|

e-----------------------------------------------------------------------------------------------|
B----------------------------------9~----------4h5p4~-------------------------------------------|
G-------------------------4--6--8-------1-1-1---------------------------------------------------|
D--2-2-2---------4-4-4------------------2-2-2---------------------------------------------------|
A--2-2-2---------4-4-4------------------2-2-2---------------------------------------------------|
E--0-0-0---------2-2-2------------------0-0-0---------------------------------------------------|


+Co

-1st Guitar :
e---------0----------------------------0-------------------------0---------4-------0------------|
B--5--------0----------------------------0----------------4--------0-------5---------0----------|
G--6---------------------------1--------------------------5----------------6--------------------|
D--7---------------------------2--------------------------6----------------6--------------------|
A--7---------------------------2--------------------------6----------------4--------------------|
E--5---------------------------0--------------------------4-------------------------------------|

e---------0----------------------------0-------------------------0---------4-------0------------|
B--5--------0----------------------------0----------------4--------0-------5---------0----------|
G--6---------------------------1--------------------------5----------------6--------------------|
D--7---------------------------2--------------------------6----------------6--------------------|
A--7---------------------------2--------------------------6----------------4--------------------|
E--5---------------------------0--------------------------4-------------------------------------|

e------0-----0----2------------4~-------------------------------------------------------|
B--5-----0-----0----4----------5~-------------------------------------------------------|
G--6-------1-------------------6~-------------------------------------------------------|
D--7---------------------------6~-------------------------------------------------------|
A--7---------------------------4~-------------------------------------------------------|
E--5------------------------------------------------------------------------------------|


-2nd Guitar :
e-----------------------------------------------------------------------------------------------|
B-----------------------------------------------------------------------------------------------|
G--------------------------------------------------------------------------6--------------------|
D--7---------------------------2--------------------------6----------------6--------------------|
A--7---------------------------2--------------------------6----------------4--------------------|
E--5---------------------------0--------------------------4-------------------------------------|

e-----------------------------------------------------------------------------------------------|
B-----------------------------------------------------------------------------------------------|
G------------------------------1-------------------------------------------6--------------------|
D--7---------------------------2--------------------------6----------------6--------------------|
A--7---------------------------2--------------------------6----------------4--------------------|
E--5---------------------------0--------------------------4-------------------------------------|

e------------------------------4~--------------------------------------------------------------|
B------------------------------5~--------------------------------------------------------------|
G------9-/6-/9-/8--------------6~--------------------------------------------------------------|
D--7---9-/6-/9-/8--------------6~--------------------------------------------------------------|
A--7---7-/4-/7-/6--------------4~--------------------------------------------------------------|
E--5-------------------------------------------------------------------------------------------|

+Pause

-1st Guitar :
e-----------------------------------------------------------------------------------------------|
B-----------------------------------------------------------------------------------------------|
G--11-----------------------------------------------------8-------------------------------------|
D--11--------------------------9--------------------------8----------------6--------------------|
A--9---------------------------9--------------------------6----------------6--------------------|
E------------------------------7-------------------------------------------4--------------------|


-2nd Guitar :
e-----------------------------------------------------------------------------------------------|
B-----------------------------------------------------------------------------------------------|
G--11-----/16---/15-----------/4----------/8------------/13---/18---/16-------------------------|
D-----------------------------------------------------------------------------------------------|
A--9------/14---/13-----------/2----------/6------------/11---/16---/14-------------------------|
E-----------------------------------------------------------------------------------------------|

+Then play the second intro riff back.

+Then the verse

+The bassline part and guitar solo part:

+First Guitar Solo :
e-----------------------------------------------------------------------------------------------|
B-------/7-5-4--/9-10-12-12-10-9----------/17-16h17p16-12-10-9----------------------------------|
G--/4-3--------------------------------------------------------9-8-11-9~------------------------|
D-----------------------------------------------------------------------------------------------|
A-----------------------------------------------------------------------------------------------|
E-----------------------------------------------------------------------------------------------|

e---------------------16b17~16b17-17-17-16-17-19b21~19-16h17p16-17-19-21-22-24~-----------------|
B--/17-16h17p16-17-19---------------------------------------------------------------------------|
G-----------------------------------------------------------------------------------------------|
D-----------------------------------------------------------------------------------------------|
A-----------------------------------------------------------------------------------------------|
E-----------------------------------------------------------------------------------------------|

+Repeat the chorus

+The break part :

-1st Guitar :
e-----------------------------------------------------------------------------------------------|
B-----------------------------------------------------------------------------------------------|
G--9-------------/8/9/11----/6----/8/9/8----9----------------9-8/9/8-9-11---/13---9-8-----------|
D--x--------------x-x-x------x--------------x-9-----7-/9-13--x-x-x-x-x--x-----x---x-x-----------|
A--7-------------/6/7/9-----/4----/6/7/6----7-x-----x--x--x--7-6/7/6-7--9---/11---7-6-----------|
E---------------------------------------------7-----5-/7/11-------------------------------------|

-2nd Guitar :
e-----------------------------------------------------------------------------------------------|
B-----------------------------------------------------------------------------------------------|
G----------------------------6-------------------------------9---------11-----------------------|
D--9--------9-9---9-9-9------6-----------6----------7--------9---------11---------9-------------|
A--9--------9-9---9-9-9------4-----------6----------7--------7----------9---------9-------------|
E--7--------7-7---7-7-7------------------4----------5-----------------------------7-------------|



-1st Guitar :
e-----------------------------------------------------------------------------------------------|
B-----------------------------------------------------------------------------------------------|
G-9------------/8---/11------6-/8/9/8----/13-----------------9-/8/9/11/13--/11/9/8--------------|
D-x-------------x-----x------x--x-x-x------x--------7-/11-/9-x--x-x--x--x---x--x-x--------------|
A-7------------/6----/9------4-/6/7/6----/11--------x---x--x-7-/6/7-/9/11--/9-/7/6--------------|
E---------------------------------------------------5--/9-/7------------------------------------|

-2nd Guitar :
e-----------------------------------------------------------------------------------------------|
B-----------------------------------------------------------------------------------------------|
G-9--------------------------6-------------------------------9---------11-----------------------|
D-9-------------9------------6-----------6----------7--------9---------11---------9-------------|
A-7-------------9------------4-----------6----------7--------7----------9---------9-------------|
E---------------7------------------------4----------5-----------------------------7-------------|



+Part before 2nd solo :

-1st Guitar :
e-----------------------------------------------------------------------------------------------|
B-----------------------------------------------------------------------------------------------|
G-/14---/13---------/11----/13-------------/14---/13-----------/11----/13-----------------------|
D---x-----x-----------x------x---------------x-----x-------------x------x-----------------------|
A-/12---/11---------/-9----/11-------------/12---/11-----------/-9----/11-----------------------|
E-----------------------------------------------------------------------------------------------|

-2nd Guitar :
e-----------------------------------------------------------------------------------------------|
B-----------------------------------------------------------------------------------------------|
G---9~------------------------------------------------------------------------------------------|
D---9~------------------------------------------------------------------------------------------|
A---7~------------------------------------------------------------------------------------------|
E-----------------------------------------------------------------------------------------------|


Anything find me on : http://www.facebook.com/sobry

            
            
Suggest correction
Creating personal tab
Creating personal tab
You can edit any tab online and save it as your Personal.

You can edit, replace or remove any tab part or add personal notes – all changes will be seen only by you.

Personal tabs can be accessed anytime from any device, even offline.
Learn more »
Give kudos to tab author, rate the tab!
1 2 3 4 5
comments
print report bad tab
guest
You may want to rate the tab now too:
select rating
Wanna post a correction for this tab? Suggest correction