Oops, an error
Loading. Please wait.

Caminando Por Las Piedras tab

71 views 1 this week
no commentswrite comment
1 2 3 4 5
3 more votes to show rating
add to favorites
×
Save as Personal and add changes to this tab that will be seen only by you. Learn more ›
×
You can save this tab as Personal to edit and correct it or add notes. All changes will be seen only by you. Learn more »
launch autoscroll
font size
0
reset
how to read this tab
guitar tuner
edit
Autoscroll
slow
fast
+/-
esc
set tempo
stop
Nota: hay algunas partes qe en realidad las hace el piano, pero
las adapte a la guitarra


  Intro
   A               E             D
e|-------0-----------------------------------------------
B|---------2---------------------------------------------
G|-----2-----2-----------1-------2--2h4-4-2-----------2-2
D|---2---------2-----------2-----0--0---0-0--------------
A|-0---------------2--2------2---------------------------
E|-------------------------------------------------------
                                         ------´`-----
  Piano adaptado a guitarra             |             |
e|---------------------------------------s5--7--8--8s9---------
B|-------------------------------------------------------------
G|---------------------------------------s6--7--8--8s9---------
D|-------------------------------------------------------------
A|-------------------------------------------------------------
E|-------------------------------------------------------------

  Durante armonica (partes adaptadas del piano a guitarra)
   A                            E                 A
e|----------------------------|----5p4-4-2s4-2-0-|---5-----7s9-7--5-
B|-------2-----2--------------|------------------|------------------
G|-----2---2-----2----2---s6--|----5p4-4-2s4-2-1-|s6-------7s9-7--6-
D|---2-------2-----2----------|------------------|------------------
A|-0--------------------------|------------------|------------------
E|----------------------------|------------------|------------------

  D           A      E      D7            A   E       A
e|----3p2---|----5-|----4-|-5--7--5h7-5-|-0-|-2--4-|--5--
B|--------3-|------|------|-------------|---|------|-----
G|----------|s6----|-s4---|-6--7--6h7-6-|-1-|-2--4-|--6--
D|----------|------|------|-------------|---|------|-----
A|----------|------|------|-------------|---|------|-----
E|----------|------|------|-------------|---|------|-----


 A                                     E
  Cuando crei que eras mi amor     huiste   corriendo
e|-----------------7-8-8s9-----------------0-------5p4-4-2-4-2-0
B|--------------------------------------------------------------
G|-----------------7-8-8s9-------------s1----------5p4-4-2-4-2-1
D|--------------------------------------------------------------
A|--------------------------------------------------------------
E|--------------------------------------------------------------

  A                                  D
        Y pase mucho tiempo      caminando con las piedras
e|----5-------------------7s9--7-5------------------3p2-----------
B|------------------------------------------------------3---------
G|-s6---------------------7s9--7-6-------------------------2-2h4-2
D|----------------------------------------------------------------
A|----------------------------------------------------------------
E|----------------------------------------------------------------

          A            E         D7                  A    E
  Que compre,  que compre       ayer
e|-----------5-------------4--0-------------------------0-2-4-5
B|-------------------------------------------------------------
G|--------s6------------s4-------------2-4-2h4-2--------1-2-4-6
D|-------------------------------------------------------------
A|-------------------------------------------------------------
E|-------------------------------------------------------------

  A                          E
    Hicimos el amor    al costado  de una avenida
e|-------------------5--------4----------------5p4-4-2-4-------
B|-------------------------------------------------------------
G|----------------s6---------------------------5p4-4-2-4-------
D|-------------------------------------------------------------
A|-------------------------------------------------------------
E|-------------------------------------------------------------

    A                                 D
        Y cuando despertaste    ya estaba el sol
e|----5-----------------7-8-8s9--------------3p2---------------
B|-----------------------------------------------3-------------
G|-s6-------------------7-8-8s9--------------------2-2h4-2-----
D|-------------------------------------------------------------
A|-------------------------------------------------------------
E|-------------------------------------------------------------

          A             E        D7                 A    E
   Que te vio     durmiendo desnuda
e|-------------5---------4---0----------2--3p2----0-----2-4-5-
B|------------------------------------------------------------
G|----------s6--------s4------------s2---------s1-------2-4-6-
D|------------------------------------------------------------
A|------------------------------------------------------------
E|------------------------------------------------------------


  Armonica
   A           E                A             D
e|---7-8-8s9-|-5p4-4--2-2h4-2-|---5-------5-|---3p2----
B|-----------|----------------|-----------5-|-------3--
G|---7-8-8s9-|-6p4-4--2-2h4-2-|s6-----5h6---|----------
D|-----------|----------------|-------------|----------
A|-----------|----------------|-------------|----------
E|-----------|----------------|-------------|----------

   A      E       D7   A       E    A
e|----5|------4-|----|----0-|-2-4-|--5-
B|-----|--------|----|------|-----|----
G|-s6--|---s4---|----|----1-|-2-4-|--6-
D|-----|--------|----|------|-----|----
A|-----|--------|----|------|-----|----
E|-----|--------|----|------|-----|----

 A                              E
   Quede solo en un cuarto, aturdido por mis nervios
e|-------------------------------------------------5p4-0-
B|-------------------------------------------------------
G|-------------------------------------------------6p4-1-
D|-------------------------------------------------------
A|-------------------------------------------------------
E|-------------------------------------------------------

  A                                D
        Imaginando acordes    para hacerte una cancion
e|----5------------------7s9-------------------------3p2-------
B|-------------------------------------------------------3-----
G|-s6--------------------7s9-----------------------------------
D|-------------------------------------------------------------
A|-------------------------------------------------------------
E|-------------------------------------------------------------

  A                        E             D7      A
        Que va a ser  para mi       tu recuerdo
e|----5------------------------4-0------------------------
B|--------------------------------------------------------
G|-s6-----------------------s4----------------------------
D|--------------------------------------------------------
A|-----------------------------------------------0---2-4-5
E|--------------------------------------------------------

  D                              A
    Y voy cruzando otra vez por este amargo clima
e|-------------------------------------------------------------
B|-------------------5s7---------------------------------------
G|-------------------------------------------------------------
D|-------------------------------------------------------------
A|-------------------------------------------------------------
E|-------------------------------------------------------------
   D                                            E
          Sos mi unica esperanza          para volver a salir
e|-----10--------------------10--12--12s14---------------------
B|-------------------------------------------------------------
G|-s11-----------------------11--12--12s14---------------------
D|-------------------------------------------------------------
A|-------------------------------------------------------------
E|-------------------------------------------------------------

   A                                   E
        Cuando crei que eras mi amor huiste corriendo
e|----5--17171717171717171717-19192020-212121212121212121212121
B|-------------------------------------------------------------
G|-S6----------------------------------------------------------
D|-------------------------------------------------------------
A|-------------------------------------------------------------
E|-------------------------------------------------------------

                     A
                          Y pase mucho tiempo
e|-2121-21-2020-1919----5-----17171717171717171717-
B|-------------------------------------------------
G|-------------------s6----------------------------
D|-------------------------------------------------
A|-------------------------------------------------
E|-------------------------------------------------

       D                                     A
  caminando  con  las     piedras    que compre
e|-----10101010101010101010-----------------1717171717171717---
B|-------------------------------------------------------------
G|-------------------------------------------------------------
D|-------------------------------------------------------------
A|-------------------------------------------------------------
E|-------------------------------------------------------------

          E                D    E   A
  que compre              ayer
e|-------------------------------------------------------------
B|-------------------------------------------------------------
G|-------------------------------------------------------------
D|-------------------------------------------------------------
A|-------------------------------------------------------------
E|-------------------------------------------------------------
Suggest correction
Creating personal tab
Creating personal tab
You can edit any tab online and save it as your Personal.

You can edit, replace or remove any tab part or add personal notes – all changes will be seen only by you.

Personal tabs can be accessed anytime from any device, even offline.
Learn more »
Give kudos to tab author, rate the tab!
1 2 3 4 5
comments
print report bad tab
guest
Wanna post a correction for this tab? Suggest correction