Oops, an error
Loading. Please wait.

Chico De La Oculta tab

version 1
version 1

Whole song

38 views 1 this week
no commentswrite comment
1 2 3 4 5
3 more votes to show rating
add to favorites
×
Save as Personal and add changes to this tab that will be seen only by you. Learn more ›
×
You can save this tab as Personal to edit and correct it or add notes. All changes will be seen only by you. Learn more »
launch autoscroll
font size
0
reset
how to read this tab
guitar tuner
edit
Autoscroll
slow
fast
+/-
esc
set tempo
stop
aca les dejo la correccion de este tema qe tenia un par de errores

NOTA
Para los ?riff? se puede usar SLIDE  o  la misma manera suenan bien.
yo prefiero usar el slide

....= pausa
s  = slide
() = levantar o bajar según lo indique el N° q esta dentro del paréntesis
*********************************************************************

intro: (repite en toda la estrofa)

       MI

e)-------0--------
B)-----0---0------
G)---1-------1----
D)-------------2--
A----------------
E)-0--------------

    MI                             LA               MI
su padre era un borracho que no podia dejar el alcohol
    MI                        LA         MI
su madre era muy buena pero nunca la cuido
           LA LA
y esta tirado
           LA LA               MI
esta dado vuelta en un zanjon
                 FA#                 LA         MI
aspirando las pequeñas cosas que la vida no le dio

inter: MI

1)-4--2--0--0h2p0----|----4--3--2--0----
2)-------------------|------------------
3)-4--2--1--1--------|-s4-4--3--2--1----
4)-------------------|------------------
5)-------------------|------------------
6)-------------------|------------------

riff 1                 riff 2       riff 3    riff 4  riff 5 (con slide)

1)--------------------|---------|------------|------|----------------|
2)-------12-----------|---------|------------|------|-----17---------|
3)-11s13----13s11-9---|-----9...|------------|----9-|16s18--18s16-13-|
4)--------------------|-9-11----|9/11..-11/9-|9-11--|----------------|
5)--------------------|---------|------------|------|----------------|
6)--------------------|---------|------------|------|----------------|

riff 6 (con slide)      riff 7     riff 8           el riff 7 y 8 hacerlo
                                                    también con ?slide?
1)-------------------|----------|-----------------
2)------17-----------|----------|-----------------
3)-16s18---18s16-13--|-13s14s13-|-16s14----16s13--  el riff 8= hacerlo
4)-------------------|----------|-----------------  lento siguiendo la
5)-------------------|----------|-----------------  canción..
6)-------------------|----------|-----------------
                                            riff 1
cuando el era muy pequeño a pocos le importo
                  riff 2    riff 3
procuraba sus alimentos y algún almohadon
riff4 riff 5
para acostarse
           riff 6
y acolchonar su corazón
     riff 7                   riff 8
por la calle de ciudad oculta el camina hoy.


inter: MI

1)-4--2--0--0h2p0----|----4--3--2--0----
2)-------------------|------------------
3)-4--2--1--1--------|-s4-4--3--2--1----
4)-------------------|------------------
5)-------------------|------------------
6)-------------------|------------------

   MI5
y yo, yo
        LA5           MI5
yo le dedico este rocanrol

repite la cancion de la misma manera pero mas rapido.

Después del silencio..... hace esto...

                      |Esta parte hacer (pm) |
                      |palm mute... menos m5 |
1)----------------------------------------------------------
2)----------------------------------------------------------
3)----------------------------------------------------------
4)--------2---2---2-2----------------2---2--2-2-------------
5)--------2---2---2-2-------2-4------2---2--2-2-------2-4---
6)-12s3-4---4---4-----0-3h4-----0--4---4---4----0-3h4-----0-

TODO CON PALM MUTE ACA
     |desde aca... hace esto. Pero mas rapido.. y tira un par de m5


********************************************************************
bueno.. espero que le sirva.... cualquier duda hacerlo a
federnr_la25@
aguante viejas locas,,,, un saludo
Suggest correction
Creating personal tab
Creating personal tab
You can edit any tab online and save it as your Personal.

You can edit, replace or remove any tab part or add personal notes – all changes will be seen only by you.

Personal tabs can be accessed anytime from any device, even offline.
Learn more »
Give kudos to tab author, rate the tab!
1 2 3 4 5
comments
print report bad tab
guest
Wanna post a correction for this tab? Suggest correction