Oops, an error
Loading. Please wait.

Descansar En Paz bass

39 views 1 this week
no commentswrite comment
1 2 3 4 5
3 more votes to show rating
add to favorites
×
Save as Personal and add changes to this tab that will be seen only by you. Learn more ›
×
You can save this tab as Personal to edit and correct it or add notes. All changes will be seen only by you. Learn more »
launch autoscroll
font size
0
reset
guitar tuner
edit
Autoscroll
slow
fast
+/-
esc
set tempo
stop
Bueno, esta es mi 1er tema subido a la cuerda ya
 q estoy aburrido y nose q hacer ^^

1ero empieza la viola haciendo G-C-A#

G|------------------------------------------------------------------------|
D|--------2---2-3-2-------2---2-3-2-------2---2-3-2---2-3-2---2-3-2-------|
A|-----5----5-------5---5---5-------5---5---5-------5-------5-------5-----|
E|--3-----------------3---------------3-----------------------------------|


G|------------------------------------------------------------------------|
D|--------2---2-3-2-------2---2-3-2-------2---2-3-2---2-3-2---2-3-2-------|
A|-----5----5-------5---5---5-------5---5---5-------5-------5-------5-----|
E|--3-----------------3---------------3--------------------------------3--|

en el tema, el bajo con la guitarra hacen lo mismo

G-C-A#-G
         Cuando la conozcas
F-G
         creerás encontrar
G-C-A#-G
         por unos minutos
F-G
         la felicidad
G-C-A#-G
         y cuando se vaya
F-G
         la vas a buscar
G-C-A#-G
         por cielo, por tierra, por agua,


G|------------------------------|
D|--5-5--3-3--2-2---------------|
A|-----------------5-5----------|
E|------------------------------|
     no vas a poder


Estribillo

G|-------5-5--3-3--------------|
D|-----------------5-5---------|
A|--3-3------------------------|   X2
E|-----------------------------|

G|-----------------------------|
D|-------5-5-3-3---------------|
A|----------------5-5----------|   X2
E|--3-3------------------------|

---

G|-------5-5--3-3--------------|
D|-----------------5-5---------|
A|--3-3------------------------|   X2
E|-----------------------------|

G|-----------------------------|
D|-------5-5-3-3---------------|
A|----------------5-5----------|   X2
E|--3-3------------------------|

---

G|-------5-5--3-3--------------|
D|-----------------5-5---------|
A|--3-3------------------------|   X2
E|-----------------------------|

G|-----------------------------|
D|-------5-5-3-3---------------|
A|----------------5-5----------|   X2
E|--3-3------------------------|


G|----------------------------7-7--5-5----------------------------------|
D|-------7-7--5-5-----------------------7-7--------5-5--3-3-------------|
A|-----------------7-7---5-5---------------------------------5-5--------|
E|--5-5---------------------------------------3-3-----------------------|


igual q antes:


Si le tienes miedo
no la veas más
no es la solución
sólo son problemas
y cuanto más sigas
más te va a costar
y por cielo, por tierra, por agua
no vas a poder descansar en paz.


el punteo tiene la base del estribillo


Final:


G|-------------------------------------------------------------|
D|-------7-7--5-5----------------------------------------------|
A|-----------------7-7---5--3--------2-2-3-3-4-4-5--3-4-5------|
E|--5-5-------------------------3-3----------------------------|


bueno, espero q les sirva y empiezen a sacar los temas d oido,
asi lo entrenan

            
            
Suggest correction
Creating personal tab
Creating personal tab
You can edit any tab online and save it as your Personal.

You can edit, replace or remove any tab part or add personal notes – all changes will be seen only by you.

Personal tabs can be accessed anytime from any device, even offline.
Learn more »
Give kudos to tab author, rate the tab!
1 2 3 4 5
comments
print report bad tab
guest
Wanna post a correction for this tab? Suggest correction