Oops, an error
Loading. Please wait.

Dos Nenas tab

version 1
version 1

Whole song

35 views 1 this week
no commentswrite comment
1 2 3 4 5
3 more votes to show rating
add to favorites
×
Save as Personal and add changes to this tab that will be seen only by you. Learn more ›
×
You can save this tab as Personal to edit and correct it or add notes. All changes will be seen only by you. Learn more »
launch autoscroll
font size
0
reset
how to read this tab
guitar tuner
edit
Autoscroll
slow
fast
+/-
esc
set tempo
stop
VIEJAS LOCAS - DOS NENAS

... dejar sonar
()  levantar o bajar la cuerda  dependiendo del N° que este entre el paréntesis
    si es mayor levantar.. si es menor bajar..
h   hamer on
p   pull off

BASE INTRO

     G5                      E     G    A  A#   B   C
1) ------------------|---|-------------------------------------------
2) ------------------|---|-------------------------------------------
3) ------------------|---|-------------------------------------------
4) - 5-------------5-|-X7|---------5----7---8---9---10---------------
5) --5-------------5-|---|---------5----7---8---9---10---------------
6) --3---6-7--3----3-|---|---0-----3----5---6---7----8---------------

C5
Si una chica viene y dice que te quiere curtir
        G5
y se despide de su amiga con un beso de boca
C5
Dice que esta noche no te vas a corregir
G5
dice que esta noche no se va a dormir sola.

D5                    G5
Ella... ¿qué quiere de mí?

Siiii
Media tortilla esta noche me voy a morfar
y no me voy a hacerme ya ningún problema por eso
Ella igual no quiere hacerlo por atrás
vamos a empezar por adelante primero.

D5                       C5
Se le va parar el corazón
D5                                      C5
porque hace tiempo que no prueba un varón.

PUNTEO

1) ---------------------------------------------------|
2) -----333333333-3(1)--------------------------------|
3) -5(7)--------------5-3...---5-3----5-5-----5(7)-5-3|
4) -------------------------------5-3-----------------|
5) ---------------------------------------------------|
6) ---------------------------------------------------|

1)-------------------------------------------------| ----------------|
2)-5(7)---5(7)---5(7)----5(7)---5(7)---------------|-----------------|
3)-5(7)-3-5(7)-3-5(7)-3--5(7)-3-5(7)-3....--------3|--5...-5-3-3....-|
4)--------------------------------------------3-5--|5---------5------|
5)-----------------------------------------3h5-----|-----------------|
6)-------------------------------------------------|-----------------|

1)-------|3---------5---3---------5|----5-----5----5------5|
2)-------|3---------5---3---------5|----5-----5----5------5|
3)-5-3-3-|--5-3-5(7)------5-3-5(7)-|3(5)--3(5)--3(5)--3(5)-|
4)----5-5|-----5-------------5-----|-----------------------|
5)-------|-------------------------|-----------------------|
6)-------|-------------------------|-----------------------|

1)--------------------------------------------|3---------3---3---------3|
2)-5p3-5p3-5p3-5p3-5p3-5p3--------------------|3---------3---3---------3|
3)-------------------------5-5(7)-5-3---3-5-33|--5-3-5(7)------5-3-5(7)-|
4)------------------------------------5-------|-----5-------------5-----|
5)--------------------------------------------|-------------------------|
6)--------------------------------------------|-------------------------|

1)-----3------3------3------3------3-----3------3------3------3------3-|
2)-----3------3------3------3------3-----3------3------3------3------3-|
3)-5(7)--5(7)---5(7)---5(7)---5(7)---5(7)--5(7)---5(7)---5(7)---5(7)---|
4)---------------------------------------------------------------------|
5)---------------------------------------------------------------------|
6)---------------------------------------------------------------------|

1)-3-------------------------|
2)-3-------------------------|
3)---5....5-3---3...-------3-|
4)-----------5---------3-5---|
5)------------------3h5------|
6)---------------------------|

Si tiene suerte en la vida va a poder enlazar
con alguna hermafrodita que le pase la lengua
Por toda la vida ellas se van a amar
no van a tener hijos porque son dos nenas.
Dos nenas que nacieron así.
Dos nenas que se arreglan así.

1)-6(8)-3--6(8)--3-6(8)--3-6(8)--3-6(8)-3|-6(8)-3--6(8)--3-6(8)--3-6(8)--3-6(8)-3.....|
2)---------------------------------------|--------------------------------------------|
3)---------------------------------------|--------------------------------------------|
4)---------------------------------------|--------------------------------------------|
5)---------------------------------------|--------------------------------------------|
6)---------------------------------------|--------------------------------------------|

1)------33-------33-------33-------33|-------------------------------------------
2)-5-3--33--5-3--33--5-3--33--5-3--33|-5p3-5p3-5p3-5p3-5p3-5p3--------------------
3)----5--------5--------5--------5---|------------------------5-5(7)-5-3---3-5-33
4)-----------------------------------|-----------------------------------5-------
5)-----------------------------------|---------------------------------------------
6)-----------------------------------|-------------------------------------------

1)-3---------3---3---------3|-----3------3------3------3------3
2)-3---------3---3---------3|-----3------3------3------3------3
3)---5-3-5(7)------5-3-5(7)-|-5(7)--5(7)---5(7)---5(7)---5(7)--
4)------5-------------5-----|----------------------------------
5)--------------------------|----------------------------------
6)--------------------------|----------------------------------

1)-----3------3------3------3------3-|(acá lo hace mas rápido)
2)-----3------3------3------3------3-|(pueden variar acá.. y tocar
3)-5(7)--5(7)---5(7)---5(7)---5(7)---|solamente el traste 5 sin necesidad
4)-----------------------------------|de levantar la cuerda, q suena parecido)
5)-----------------------------------|
6)-----------------------------------|

1)----------------------------|
2)----------------------------|
3)----3---3-5-3-------3(1)....|
4)-3h5-5--------5-3-5---------|
5)----------------------------|
6)----------------------------|


***************************************************************
bueno.. aca.. esta... el tema completo... cualquier duda... hacerlo
a federnr_la25@
aguante viejas locas...la 25 , JP, intoxicados
con el rock en las venas

            
            
Suggest correction
Creating personal tab
Creating personal tab
You can edit any tab online and save it as your Personal.

You can edit, replace or remove any tab part or add personal notes – all changes will be seen only by you.

Personal tabs can be accessed anytime from any device, even offline.
Learn more »
Give kudos to tab author, rate the tab!
1 2 3 4 5
comments
print report bad tab
guest
Wanna post a correction for this tab? Suggest correction