Oops, an error
Loading. Please wait.

El Hombre Suburbano tab

138 views 1 this week
no commentswrite comment
1 2 3 4 5
3 more votes to show rating
add to favorites
×
Save as Personal and add changes to this tab that will be seen only by you. Learn more ›
×
You can save this tab as Personal to edit and correct it or add notes. All changes will be seen only by you. Learn more »
launch autoscroll
font size
0
reset
how to read this tab
guitar tuner
edit
Autoscroll
slow
fast
+/-
esc
set tempo
stop
aca les dejo este temazo, es el de pappo con viejas locas
esta con todos los punteos, acordes y todo

INTRO

e|-----------------------------------------------------------------------
B|---3---5-------5-------------------------------------------------------
G|---3---5-3h4---5-3h4---------------------------------------------------
D|-5---5-------5-------5-3-----------------------------------------------
A|-------------------------5-4-3-----------------------------------------
E|-------------------------------6-3-------------------------------------

      G5                                 G5
e|----------------------------------10-----------------------------------
B|----8-10b----11p10p8--10p8----10b----10b---8---8-----------------------
G|-s9--------9---------------9-----------------9---s12--12-10------------
D|------------------------------------------------------------10h12-10---
A|-----------------------------------------------------------------------
E|---------------------------------------------------------------------10


    D5                   G5
e|-------------------------------------------10-----3----3----3---------
B|-----------------8----10ba-p8---10p8---10b----8-----------------------
G|-----------7h9-9---9----------9------9--------------------------------
D|------8h10-----------------------------------------0-----1-----2---3--
A|-8h10-----------------------------------------------------------------
E|----------------------------------------------------------------------


ESTROFA

    G5
 estamos en el tiempo en que el ser humano vive con razon de ser
e|----------------------------------------------------------------------
B|------5--------------------------5-------------5----------------------
G|------5-3h4----------------------5-3h4---------5-3h4-------5ba-p3-5---
D|----5--------------------------5-------------5----------------------5-
A|----------------------------------------------------------------------
E|----------------------------------------------------------------------

    C5                                     G5
  con solo unas palabras su caso puede resolver
e|----------------------------------------------6b-3---------------------
B|--------------------------8~-----------------------6-3-----------------
G|-3-5~--------------------------------------------------5ba-p3----------
D|--------------------------------------------------------------5--------
A|----------------------------------------------------------------5------
E|-----------------------------------------------------------------------

   D5                     C5
  pero pega una trompada y tira todo
e|----------------------------------------------------------------------
B|-------------------------8--------------------------------------------
G|----------------------------------------------------------------------
D|---------------------s5-----------------------------------------------
A|----------------------------------------------------------------------
E|----------------------------------------------------------------------

    D5                 C5            G5               D5
  se cree ya muy listo por su modo de ser
e|--------------------------------------------3----3-----3--------------
B|----10----------------8-----------------------------------------------
G|----------------------------------------------------------------------
D|-s7---------------s5--------------------0-----1-----2-----3-----------
A|----------------------------------------------------------------------
E|----------------------------------------------------------------------

     G5
  un hombre sin historia, sin tiempo y sin memoria
e|-----------------------------------------------------------------------
B|-------------5------------------------5--------------------------------
G|-------------5-3h4--------------------5-3h4----------------------------
D|-----------5------------------------5----------------------------------
A|-----------------------------------------------------------------------
E|-----------------------------------------------------------------------


  puede reaccionar asi
e|-------------------------7--6---5--------------------------------------
B|-----5-----------------------------------------------------------------
G|-----5-3h4------------s7--6---5----------------------------------------
D|---5-------------------------------------------------------------------
A|-----------------------------------------------------------------------
E|-----------------------------------------------------------------------

  C5                                               G5
  pero no se da cuenta, su personalidad en venta está
e|------------------------------------------------------------------------
B|--------------------------------------------13ba-p11----13-11-11b-------
G|-----------------------------------------------------12-----------12----
D|---------------------------------------------------------------------12-
A|------------------------------------------------------------------------
E|------------------------------------------------------------------------


     D5                   C5               D5            C5            G5
el hombre suburbano sigue su rutina, sin darse cuenta que su vida terminara
e|-----------------------------------------------------------------------
B|-----------------------------------------------------------------------
G|-----------------------------------------------------------------------
D|-----------------------------------------------------------------------
A|-----------------------------------------------------------------------
E|-----------------------------------------------------------------------

                          SOLO
e|----7---6---5---------------------------------------------------10-----
B|---------------------------8-10-10b-10b-10b-10b-10p8---10-8-10b--------
G|-s7---6---5---3b--------s9---------------------------9-----------------
D|-----------------5-----------------------------------------------------
A|-------------------5---------------------------------------------------
E|-----------------------------------------------------------------------


e|-----10-----10-----10-------------------------------13-----------------
B|-10b----10b----10b-----10p8---10-10-10-------11-13b----13p11----11-----
G|----------------------------9------------s12-----------------12--------
D|-----------------------------------------------------------------------
A|-----------------------------------------------------------------------
E|-----------------------------------------------------------------------


e|-------------------------------------------3-3----3--------3-3----3---
B|-------------------------------------------3-3----3--------3-3----3-6b
G|-s3-3-3-3-3---------------3-5ba-p3---3--5b-----5b---5b--5b-----5b-----
D|------------5-5p3---3-4-5----------5----------------------------------
A|------------------5---------------------------------------------------
E|----------------------------------------------------------------------


e|-3-----------------3------------------------3-6------------------------
B|-3-----------------3--6--6----5---5---------3--------------------------
G|---5p3---3-3-3b-5b----5b-5ba--5---5----3-5b------5ba-p3---5-3----------
D|-------5------------------------5---5-------------------5-----5--------
A|-----------------------------------------------------------------------
E|-----------------------------------------------------------------------


e|-----------------------------------------------------------------------
B|-----------------------------------------------------------------------
G|-5p3---5p3---5p3---5p3--3b---------------------------------------------
D|-----5-----5-----5---------5-------------------------------------------
A|-----------------------------5-----------------------------------------
E|-----------------------------------------------------------------------


  un hombre sin historia, sin tiempo y sin memoria puede reaccionar asi
e|-----------------------------------------------------------------------
B|---5-------------------------------5-------------------5----------5----
G|---5-3h4---------------------------5-3h4---------------5-3h4------5-3h4
D|-5-------------------------------5-------------------5----------5------
A|-----------------------------------------------------------------------
E|-----------------------------------------------------------------------


  pero no se da cuenta, su personalidad en venta esta
e|----------------------------------------------------7---6---5----------
B|--------------------------------------------------------------3--------
G|-------------------------------------------------s7---6---5-----6-5-3--
D|-----------------------------------------------------------------------
A|-----------------------------------------------------------------------
E|-----------------------------------------------------------------------


el hombre suburbano sigue su rutina sin darse cuenta que su vida terminara
e|-----------------------------------------------------------------------
B|-----------------------------------------------------------------------
G|-----------------------------------------------------------------------
D|-----------------------------------------------------------------------
A|-----------------------------------------------------------------------
E|-----------------------------------------------------------------------


  FINAL

     una guitarra hace esto:                    y la otra hace esto:
e|-------------------------------13---------|----------------------------
B|----11-13-13ba-p11--13-11--13b----13//-11b|----------------------6-----
G|s12---------------------------------------|----3-5-5ba-p3-5-3-5b---5b-3
D|------------------------------------------|-s5-------------------------
A|------------------------------------------|----------------------------
E|------------------------------------------|----------------------------

me costo un huevazo sacarla, ojala les suene bien
Suggest correction
Creating personal tab
Creating personal tab
You can edit any tab online and save it as your Personal.

You can edit, replace or remove any tab part or add personal notes – all changes will be seen only by you.

Personal tabs can be accessed anytime from any device, even offline.
Learn more »
Give kudos to tab author, rate the tab!
1 2 3 4 5
comments
print report bad tab
guest
Wanna post a correction for this tab? Suggest correction