Oops, an error
Loading. Please wait.

Eva tab

version 2
version 2

Whole song

41 views 1 this week
no commentswrite comment
1 2 3 4 5
2 more votes to show rating
add to favorites
×
Save as Personal and add changes to this tab that will be seen only by you. Learn more ›
×
You can save this tab as Personal to edit and correct it or add notes. All changes will be seen only by you. Learn more »
launch autoscroll
font size
0
reset
how to read this tab
guitar tuner
edit
Autoscroll
slow
fast
+/-
esc
set tempo
stop
 CON SLIDE

  Intro

  A5               D5            A5             E5
e|----------------------------------------------------
B|-----2-----2-----7-7-5-2s3--------2-----2-----9-9---
G|-1s2---1s2---2s7-----------4--1s2---1s2---2s9-------
D|----------------------------------------------------
A|----------------------------------------------------
E|----------------------------------------------------

       A5                  D5                 A5            E5
e|-------------------------------------------------------------
B|-------2-----2-----2-----7-7-7-7-5-2s3--------2-----2-----9--
G|-1-1s2---1s2---1s2---2s7----------------4-1s2---1s2---2s9----
D|-------------------------------------------------------------
A|-------------------------------------------------------------
E|-------------------------------------------------------------


  Eva           no te vayas con Adán
e|-----------------------------------------
B|----6s7----------------------------8s9---
G|-----------------------------------------
D|-----------------------------------------
A|-----------------------------------------
E|-----------------------------------------


  Eva                   mi serpiente vale más
e|--------------------------------------------7--------
B|-------2--s7-5-2s3----------------------------7s9-5--
G|---1s2-----------------------------------------------
D|-----------------------------------------------------
A|-----------------------------------------------------
E|-----------------------------------------------------


  Eva                  hay más manzanas por aquí
e|-------------------------------------------------------
B|-------2-s7-5-2s3------------------------------8s9-8s9-
G|---1s2-------------------------------------------------
D|-------------------------------------------------------
A|-------------------------------------------------------
E|-------------------------------------------------------


  Eva             hoy te voy a hacer feliz
e|-------------------------------------------------------
B|------6s7---------------------------------8s9--9-8-6s7-
G|-------------------------------------------------------
D|-------------------------------------------------------
A|-------------------------------------------------------
E|-------------------------------------------------------

    D5              A5
  Y del paraiso       vamos a escapar
e|------------------------------------------------
B|----------------------------------------2-2s7-7-
G|--------------1s2-------------------1s2---------
D|------------------------------------------------
A|------------------------------------------------
E|------------------------------------------------

  D5                          A5
  El flaco de barba             nos quiere encerrar
e|-----------------------------------------------------
B|------------------s7------------------------------6s7
G|---------------------s7--1s2-------------------------
D|-----------------------------------------------------
A|-----------------------------------------------------
E|-----------------------------------------------------

  D5                       A5
  Conozco la historia          lo van a colgar
e|-------------------------------------------------------------
B|--------------------s7---------------------------------------
G|-----------------------s6--------------------1s2-2-2-1-2-2s4-
D|-------------------------------------------------------------
A|-------------------------------------------------------------
E|-------------------------------------------------------------

  B5                        E5
  Sacate la hoja             TE VOY A GARCHAR  te voy a garchar
e|-------------------------------------------------------------
B|-------------------------------------------------------------
G|---------------s9--------------------------------------------
D|-------------------------------------------------------------
A|-------------------------------------------------------------
E|-------------------------------------------------------------


  A5               D5            A5             E5
e|----------------------------------------------------
B|-----2-----2-----7-7-5-2s3--------2-----2-----9-9---
G|-1s2---1s2---2s7-----------4--1s2---1s2---2s9-------
D|----------------------------------------------------
A|----------------------------------------------------
E|----------------------------------------------------

       A5                  D5                 A5            E5
e|-------------------------------------------------------------
B|-------2-----2-----2-----7-7-7-7-5-2s3--------2-----2-----9--
G|-1-1s2---1s2---1s2---2s7----------------4-1s2---1s2---2s9----
D|-------------------------------------------------------------
A|-------------------------------------------------------------
E|-------------------------------------------------------------

  Solo
e|-s12-12-12--8s9-------s14-14-14--12-s10--
B|-----------------10----------------------
G|-----------------------------------------
D|-----------------------------------------
A|-----------------------------------------
E|-----------------------------------------


e|-s12-12-12-12-12--8s9-----------------------
B|-----------------------10-10-10s12-12-12-12-
G|--------------------------------------------
D|--------------------------------------------
A|--------------------------------------------
E|--------------------------------------------

  Segundo estribillo

                   y del paraiso             vamos..
e|--------------------------------------------------------------
B|-7s9----------------------------7s----------------------------
G|-----9-9-8-6s7------------------7s-------2------------2--2s7-7
D|-------------------------------------1s2----------1s2---------
A|--------------------------------------------------------------
E|--------------------------------------------------------------

  El flaco de barba             nos quiere encerrar
e|-------------------------------------------------------
B|------------------s7------------------------------6s7--
G|---------------------s7--1s2---------------------------
D|-------------------------------------------------------
A|-------------------------------------------------------
E|-------------------------------------------------------

  Conozco la historia          lo van a colgar
e|-----------------------------------------------------------
B|--------------------7s-------------------------------------
G|--------------------7s---1s2--------------1s2-2-2-1-2-2s4--
D|-----------------------------------------------------------
A|-----------------------------------------------------------
E|-----------------------------------------------------------

  Sacate la hoja          TE VOY A GARCHAR  te voy a garchar
e|-------------------------------------------------------------
B|-------------------------------------------------------------
G|--------------2s9-9------------------------------------------
D|-------------------------------------------------------------
A|-------------------------------------------------------------
E|-------------------------------------------------------------


   A5               D5            A5             E5
e|----------------------------------------------------
B|-----2-----2-----7-7-5-2s3--------2-----2-----9-9---
G|-1s2---1s2---2s7-----------4--1s2---1s2---2s9-------
D|----------------------------------------------------
A|----------------------------------------------------
E|----------------------------------------------------

       A5                  D5                 A5            E5
e|-------------------------------------------------------------
B|-------2-----2-----2-----7-7-7-7-5-2s3--------2-----2-----9--
G|-1-1s2---1s2---1s2---2s7----------------4-1s2---1s2---2s9----
D|-------------------------------------------------------------
A|-------------------------------------------------------------
E|-------------------------------------------------------------

  Solo
e|-s12-12-12--8s9-------s14-14-14--12-s10--
B|-----------------10----------------------
G|-----------------------------------------
D|-----------------------------------------
A|-----------------------------------------
E|-----------------------------------------


e|-s12-12-12-12-12--8s9------------------------------------
B|-----------------------10-10-10s12-12-12-12---12-11-9s10-
G|---------------------------------------------------------
D|---------------------------------------------------------
A|---------------------------------------------------------
E|---------------------------------------------------------

  Tercer estribillo

  y del paraiso                vamos a escapar
e|-----------------------------------------------------------
B|-------------------------------------------------------7---
G|--------------------------------------------s6-2---2s7-----
D|-----------------------------------------------------------
A|-----------------------------------------------------------
E|-----------------------------------------------------------


  el flaco de barba            nos quiere encerrar
e|-------------------------------------------------------------
B|-----------------s7------------------------------------------
G|--------------------s7--1s2--------------------------2-2s7-7-
D|-------------------------------------------------1s2---------
A|-------------------------------------------------------------
E|-------------------------------------------------------------


  conozco la historia            lo van a colgar
e|-------------------------------------------------------------
B|-------------------------------------------------------------
G|--------------------7s--1s2-------------------1s2-2-2-1-2-2s4
D|-------------------------------------------------------------
A|-------------------------------------------------------------
E|-------------------------------------------------------------


  sacate la hoja        TE VOY A GARCHAR  te voy a garchar
e|-------------------------------------------------------------
B|-------------------------------------------------------------
G|---------------s9--s9----------------------------------------
D|-------------------------------------------------------------
A|-------------------------------------------------------------
E|-------------------------------------------------------------

 A5               D5            A5             E5
e|----------------------------------------------------
B|-----2-----2-----7-7-5-2s3--------2-----2-----9-9---
G|-1s2---1s2---2s7-----------4--1s2---1s2---2s9-------
D|----------------------------------------------------
A|----------------------------------------------------
E|----------------------------------------------------

       A5                  D5                 A5            E5
e|-------------------------------------------------------------
B|-------2-----2-----2-----7-7-7-7-5-2s3--------2-----2-----9--
G|-1-1s2---1s2---1s2---2s7----------------4-1s2---1s2---2s9----
D|-------------------------------------------------------------
A|-------------------------------------------------------------
E|-------------------------------------------------------------

  Solo
e|-s12-12-12--8s9-------s14-14-14--12-s10--
B|-----------------10----------------------
G|-----------------------------------------
D|-----------------------------------------
A|-----------------------------------------
E|-----------------------------------------


e|-s12-12-12-12-12--8s9------------------------------------
B|-----------------------10-10-10s12-12-12-12---12-11-9s10-
G|---------------------------------------------------------
D|---------------------------------------------------------
A|---------------------------------------------------------
E|---------------------------------------------------------

e|------------------------------------------------------------
B|-7-s10-s10-s10--7-s10-s10-s10-s10-s10----10-10-10-10--10s12-
G|--------------------------------------s9--------------------
D|------------------------------------------------------------
A|------------------------------------------------------------
E|------------------------------------------------------------

e|-----------------------
B|----10-10-10-10-10s12--
G|-s9--------------------
D|-----------------------
A|-----------------------
E|-----------------------
Suggest correction
Creating personal tab
Creating personal tab
You can edit any tab online and save it as your Personal.

You can edit, replace or remove any tab part or add personal notes – all changes will be seen only by you.

Personal tabs can be accessed anytime from any device, even offline.
Learn more »
Give kudos to tab author, rate the tab!
1 2 3 4 5
comments
print report bad tab
guest
Wanna post a correction for this tab? Suggest correction