Oops, an error
Loading. Please wait.

La Simpatica Demonia tab

version 1
version 1

Whole song

55 views 1 this week
no commentswrite comment
1 2 3 4 5
3 more votes to show rating
add to favorites
×
Save as Personal and add changes to this tab that will be seen only by you. Learn more ›
×
You can save this tab as Personal to edit and correct it or add notes. All changes will be seen only by you. Learn more »
launch autoscroll
font size
0
reset
how to read this tab
guitar tuner
edit
Autoscroll
slow
fast
+/-
esc
set tempo
stop
    C5
Si tenes sobre tu lengua
     A#5
un pequeño cartón
      C5
no lo tires ni l escupas
     A#5
chupalo, por favor
      C5
porque en pocos minutos
     A#5                  C5     A#5
la psicodelia estara con vos.


No quiero gente amargada
que esté cerca de mi
ni tus besos ni caricias
no puedo resistir
sólo quiero divertirme
y espero que pronto estés aquí.

F5                         G5
Y si algún día no pudiera reír
           C5             F5
con tus dibujos estarías aquí
C5
y la simpática demonia
  G5                  C5
estaría conmigo otra vez


Sigue con el mismo formato de acordes ....


Punteo :

                     PARTE "A"

e--------8-8-8 8-8-8-8---|--------8-8-11-11-8-11-11-8-|
b--------8-8-8-8-8-8-8---|--------8-8-10-10-8-10-10-8-|
g-8-9-8h9----------------|-8-9-8h9--------------------|x2
D------------------------|----------------------------|
A------------------------|----------------------------|
E------------------------|----------------------------|


                            +

                         PARTE "B"
|-11-11-8-11-8-11-8|---------------|
|-10-10-8-10-810--8|-(11)-(8)------|
|------------------|-(10)-(8)--8-10| x2
|------------------|---------10----|
|------------------|---------------|
|------------------|---------------|

                            +
              PARTE "C"
|---------------------|
|-(11)-(8)------------|
|-(10)-(8)--8-10-8----|
|--------10-------10v-|
|---------------------|
|---------------------|


e-----------10---10---10---10---10---10----(8)-------|
b------10-(12)-(12)-(12)-(12)-(12)-(12)-(12)---------|
g-10h12----------------------------------------------|
D----------------------------------------------------|
A----------------------------------------------------|
E----------------------------------------------------|


Referencias :


(): Es estirar la nota , en estos casos para arriba ..
v: Deja sonando la cuerda según los tiempos de la canción.


La PARTE "A" se toca 2 veces y se une
a lo que es la PARTE "B"
que a la vez se suma a la PARTE "C" (escuchen bien la parte
"C" y los tiempos que les tienen que dar)


Igual si la escuchan la sacan de toque por que es bastante facil
y es un muy buen punteo al estilo chuck :p-


Para cualquier duda tanitolp87@ agreguen y pregunten.
Suggest correction
Creating personal tab
Creating personal tab
You can edit any tab online and save it as your Personal.

You can edit, replace or remove any tab part or add personal notes – all changes will be seen only by you.

Personal tabs can be accessed anytime from any device, even offline.
Learn more »
Give kudos to tab author, rate the tab!
1 2 3 4 5
comments
print report bad tab
guest
Wanna post a correction for this tab? Suggest correction