Oops, an error
Loading. Please wait.

Lo Artesanal tab

version 2
version 2

Whole song

77 views 1 this week
no commentswrite comment
1 2 3 4 5
3 more votes to show rating
add to favorites
×
Save as Personal and add changes to this tab that will be seen only by you. Learn more ›
×
You can save this tab as Personal to edit and correct it or add notes. All changes will be seen only by you. Learn more »
launch autoscroll
font size
0
reset
how to read this tab
guitar tuner
edit
Autoscroll
slow
fast
+/-
esc
set tempo
stop
intro:REm SOLm
en la intro se toca el parte 1 seguido por el riff 2

Parte 1
E-------5--6p5-----|-------5--6p5-----|---------------------|
B-----6--------6---|-----6--------6---|---------------------|
G---7------------7-|---7-----------7--|-12/10-10/9-9/7-7/5--|
D------------------|------------------|---------------------|
A-5----------------|-5----------------|---------------------|
E------------------|------------------|---------------------|

RIFF 1 :
E-------5--6p5-----|
B-----6--------6---|
G---7------------7-|
D------------------| X2
A-5----------------|
E------------------|

Riff 2:
E--------------------------|---|--------------------|x2
B----------------------6---|---|--------------------|
G-5-h(7)--5h(7)--5h(7)---7-|---|-12/10-10/9-9/7-7/5-|
D--------------------------|x2-|--------------------|
A--------------------------|---|--------------------|
E--------------------------|---|--------------------|

riff 3:A ESTA PARTE SE LA ENGANCHA  CON EL FINAL DEL RIFF 2
E------------------8|
B------6---6-8-6---8|
G-5h(7)--7-------7--|

E|--------------|----------------|-----------------5/--|
B|-8-6-6--------|-----6-8-6------|-----2/3-3/1-----6/--|
G|--------7-5-7-|-5-7--------5/7-|-4-5---------3/5-7/--|

En los versos utilizamos tambien el Riff 1 para acompañar

REm
a veces pienso que esta gente tan cool
SOLm
no tiene chispa para conquistar
RE
si su monedas lo pueden comprar
SOLm
ellos se olvidan de lo artesanal

Aca utilizamos el Riff 2

REm                   SOLm
se olvidan de lo artesanal
                    REm
ellos se van a olvidar
             SOLm
de lo artesanal

hoy vino el chico del chalet marron
tenia unos pesos y queria comprar
algunas droagas para el sabado
y lo zarpaban una vez mas

REm                   SOLm
se olvidan de lo artesanal
                    REm
ellos se van a olvidar
             SOLm   SOLm-FA#
de lo artesanal

Aca se toca el riff 3

FA       SOLm SIb         DO
pero su galera  se moja cuando llueve
FA       DO SIb           SOLm            REm
y a su mujer le hacen la fiesta en un hotel.

fui a visitarlo a la tumba ayer
lleve un paquete que le iba a alegrar
cuando salio gano y le fue muy bien
y se olvido de todos los demas
se olvidaba ..........

y se mandaban esa fiestas que son todas ratas
tomando champagne
pagan muy caro por una mujer
y luego rien de la soviedad
 y se rien de lo artesanal.......

FA       SOLm SIb         DO
pero su galera  se moja cuando llueve
FA       DO SIb           SOLm            REm
y a su mujer le hacen la fiesta en un hotel.

Bueno este tema no es muy complicado
Los punteos del riff 3 lo saque de otras versiones que mandaron
otros

cualquier consulta matdanubio@

            
            
Suggest correction
Creating personal tab
Creating personal tab
You can edit any tab online and save it as your Personal.

You can edit, replace or remove any tab part or add personal notes – all changes will be seen only by you.

Personal tabs can be accessed anytime from any device, even offline.
Learn more »
Give kudos to tab author, rate the tab!
1 2 3 4 5
comments
print report bad tab
guest
Wanna post a correction for this tab? Suggest correction