Oops, an error
Loading. Please wait.

Me Gustas Mucho tab

version 2
version 2

Whole song

621 views 3 this week
no commentswrite comment
1 2 3 4 5
3 more votes to show rating
add to favorites
×
Save as Personal and add changes to this tab that will be seen only by you. Learn more ›
×
You can save this tab as Personal to edit and correct it or add notes. All changes will be seen only by you. Learn more »
launch autoscroll
font size
0
reset
how to read this tab
guitar tuner
edit
Autoscroll
slow
fast
+/-
esc
set tempo
stop
Aca les dejo unas tablatura corregidas o almenos queda mas copado...

INTRO: MI (es largo por entra a puntear y la armonica)

                riff           Mejor se lo hacen muteado
e|----------------------|x4  e|--------------------------|x8
B|----------------------|    B|--------------------------|
G|------------------2p0-|    G|--------------------------|
D|----------------------|    D|--------------------------|
A|--2-2-4--2-2--2-4-----|    A|--2-2-4--2-2--2-4---------|
E|--0-0-0--0-0--0-------|    E|--0-0-0--0-0--0-0---------|

  Repite..       riff             riff 2
e|----------------------|x4  e|---------------------------|
B|----------------------|    B|---------------------------|
G|------------------2p0-|    G|---------------------------|
D|----------------------|    D|---------------------------|
A|--2-2-4--2-2--2-4-----|    A|---------------------------|
E|--0-0-0--0-0--0-------|    E|--0-0-4-4-5-5-6-6-7---5-6-7|


Punteo de la intro:

e|-------------------------------------------|
B|-------------------------------------------|
G|----7p9------------------------------------|
D|---------7p9-7p9-7p9~~---------------------|
A|-----------------------7-7-7-7-7-7-7-7-7-7-|
E|-------------------------------------------|


MI                              Riff
Nos conocimos bailando en un bar
MI                              Riff
Tus piernas volaban las sabia llevar
MI                              Riff (Silencio)
A mi me gustaban como las movias

Y juntos nos fuimos a pernoctar.
                  LA
es que me gustas mucho
             MI
me gustas mucho
              LA
me gustas mucho
             MI
me gustas mucho.

Intro: MI


me gusta mucho como te vistes y como andas
me gusta tu pelo,tu cuerpo
me gustaría poderte bañar,
también secarte y volverte a enjuagar

por que me gustas mucho
me gustas mucho nena
me gustas mucho
me gustas mucho nena

                   SI               LA
y sera que me gustas tanto debe ser que
                  MI
no puedo disimular de veras

SOLO:

E|--------------------------
B|--------------------------
G|--------------------------
D|-----------------------2--   2 veces
A|---5-7-------7-5-------2--
E|-7---------7-----7-5-3----

E|--------------------------
B|--------------------------
G|--------------------------
D|-----------------------2--  1 vez
A|---5-9-------7-5-------2--
E|-7---------7-----7-5-3----

E|----------------------------
B|----------------------------
G|---7-9-------9-7------------ 2 veces
D|-9---------9-----9-7-5------
A|-------------------------2--
E|-------------------------2--

E|----------------------------
B|----------------------------
G|---7-11------9-7------------ 1 vez
D|-9---------9-----9-7-5------
A|-------------------------2--
E|-------------------------2--


me gustas mucho
me gustas mucho nena
sera que me gustas tanto pero tanto
me gustas mucho nena
                   SI               LA
y porque me gustas tanto debe ser que
                 riff 2
nunca te voy a olvidar.


que buen tema de viejas locas..  ojala que les salga bien..

            
            
Suggest correction
Creating personal tab
Creating personal tab
You can edit any tab online and save it as your Personal.

You can edit, replace or remove any tab part or add personal notes – all changes will be seen only by you.

Personal tabs can be accessed anytime from any device, even offline.
Learn more »
Give kudos to tab author, rate the tab!
1 2 3 4 5
comments
print report bad tab
guest
Wanna post a correction for this tab? Suggest correction